  0
SECTION
  2
HEADER
  9
$ACADVER
  1
AC1009
  9
$INSBASE
 10
0.0
 20
0.0
 30
0.0
  9
$EXTMIN
 10
-444.7935243309289
 20
-688.10956819777812
 30
-0.0015258207003583
  9
$EXTMAX
 10
455.2614073097597
 20
650.04075378504137
 30
0.0000000349246037
  9
$LIMMIN
 10
0.0
 20
0.0
  9
$LIMMAX
 10
0.0
 20
0.0
  9
$ORTHOMODE
 70
     0
  9
$REGENMODE
 70
     1
  9
$FILLMODE
 70
     1
  9
$QTEXTMODE
 70
     0
  9
$MIRRTEXT
 70
     1
  9
$DRAGMODE
 70
     2
  9
$LTSCALE
 40
25.399999999999999
  9
$OSMODE
 70
   167
  9
$ATTMODE
 70
     1
  9
$TEXTSIZE
 40
0.0
  9
$TRACEWID
 40
1.0
  9
$TEXTSTYLE
  7
STANDARD
  9
$CLAYER
  8
DATA
  9
$CELTYPE
  6
CONTINUOUS
  9
$CECOLOR
 62
   256
  9
$DIMSCALE
 40
1.0
  9
$DIMASZ
 40
0.18
  9
$DIMEXO
 40
0.0625
  9
$DIMDLI
 40
0.38
  9
$DIMRND
 40
0.0
  9
$DIMDLE
 40
0.0
  9
$DIMEXE
 40
0.18
  9
$DIMTP
 40
0.0
  9
$DIMTM
 40
0.0
  9
$DIMTXT
 40
0.18
  9
$DIMCEN
 40
0.09
  9
$DIMTSZ
 40
0.0
  9
$DIMTOL
 70
     0
  9
$DIMLIM
 70
     0
  9
$DIMTIH
 70
     1
  9
$DIMTOH
 70
     1
  9
$DIMSE1
 70
     0
  9
$DIMSE2
 70
     0
  9
$DIMTAD
 70
     0
  9
$DIMZIN
 70
     0
  9
$DIMBLK
  1

  9
$DIMASO
 70
     1
  9
$DIMSHO
 70
     1
  9
$DIMPOST
  1

  9
$DIMAPOST
  1

  9
$DIMALT
 70
     0
  9
$DIMALTD
 70
     2
  9
$DIMALTF
 40
25.399999999999999
  9
$DIMLFAC
 40
1.0
  9
$DIMTOFL
 70
     0
  9
$DIMTVP
 40
0.0
  9
$DIMTIX
 70
     0
  9
$DIMSOXD
 70
     0
  9
$DIMSAH
 70
     0
  9
$DIMBLK1
  1

  9
$DIMBLK2
  1

  9
$DIMSTYLE
  2
STANDARD
  9
$DIMCLRD
 70
     0
  9
$DIMCLRE
 70
     0
  9
$DIMCLRT
 70
     0
  9
$DIMTFAC
 40
1.0
  9
$DIMGAP
 40
0.09
  9
$LUNITS
 70
     2
  9
$LUPREC
 70
     4
  9
$SKETCHINC
 40
0.1
  9
$FILLETRAD
 40
0.0
  9
$AUNITS
 70
     0
  9
$AUPREC
 70
     0
  9
$MENU
  1
acad
  9
$ELEVATION
 40
0.0
  9
$PELEVATION
 40
0.0
  9
$THICKNESS
 40
0.0
  9
$LIMCHECK
 70
     0
  9
$BLIPMODE
 70
     0
  9
$CHAMFERA
 40
0.0
  9
$CHAMFERB
 40
0.0
  9
$SKPOLY
 70
     0
  9
$TDCREATE
 40
2453187.8188773151
  9
$TDUPDATE
 40
2453187.8380716429
  9
$TDINDWG
 40
0.0001951273
  9
$TDUSRTIMER
 40
0.0001951273
  9
$USRTIMER
 70
     1
  9
$ANGBASE
 50
0.0
  9
$ANGDIR
 70
     0
  9
$PDMODE
 70
     1
  9
$PDSIZE
 40
-2.0
  9
$PLINEWID
 40
0.0
  9
$COORDS
 70
     0
  9
$SPLFRAME
 70
     0
  9
$SPLINETYPE
 70
     6
  9
$SPLINESEGS
 70
     8
  9
$ATTDIA
 70
     0
  9
$ATTREQ
 70
     1
  9
$HANDLING
 70
     1
  9
$HANDSEED
  5
D53
  9
$SURFTAB1
 70
     6
  9
$SURFTAB2
 70
     6
  9
$SURFTYPE
 70
     6
  9
$SURFU
 70
     6
  9
$SURFV
 70
     6
  9
$UCSNAME
  2

  9
$UCSORG
 10
0.0
 20
0.0
 30
0.0
  9
$UCSXDIR
 10
1.0
 20
0.0
 30
0.0
  9
$UCSYDIR
 10
0.0
 20
1.0
 30
0.0
  9
$PUCSNAME
  2

  9
$PUCSORG
 10
0.0
 20
0.0
 30
0.0
  9
$PUCSXDIR
 10
1.0
 20
0.0
 30
0.0
  9
$PUCSYDIR
 10
0.0
 20
1.0
 30
0.0
  9
$USERI1
 70
     0
  9
$USERI2
 70
     0
  9
$USERI3
 70
     0
  9
$USERI4
 70
     0
  9
$USERI5
 70
     0
  9
$USERR1
 40
0.0
  9
$USERR2
 40
0.0
  9
$USERR3
 40
0.0
  9
$USERR4
 40
0.0
  9
$USERR5
 40
0.0
  9
$WORLDVIEW
 70
     1
  9
$SHADEDGE
 70
     3
  9
$SHADEDIF
 70
    70
  9
$TILEMODE
 70
     1
  9
$MAXACTVP
 70
    16
  9
$PLIMCHECK
 70
     0
  9
$PEXTMIN
 10
1.0000000000000000E+020
 20
1.0000000000000000E+020
 30
1.0000000000000000E+020
  9
$PEXTMAX
 10
-1.0000000000000000E+020
 20
-1.0000000000000000E+020
 30
-1.0000000000000000E+020
  9
$PLIMMIN
 10
0.0
 20
0.0
  9
$PLIMMAX
 10
12.0
 20
9.0
  9
$UNITMODE
 70
     0
  9
$VISRETAIN
 70
     0
  9
$PLINEGEN
 70
     1
  9
$PSLTSCALE
 70
     0
  0
ENDSEC
  0
SECTION
  2
TABLES
  0
TABLE
  2
VPORT
 70
     2
  0
VPORT
  2
*ACTIVE
 70
     0
 10
0.0
 20
0.0
 11
1.0
 21
1.0
 12
5.2339414894154279
 22
-19.034407206368311
 13
0.0
 23
0.0
 14
1.0
 24
1.0
 15
0.0
 25
0.0
 16
0.0
 26
0.0
 36
1.0
 17
0.0
 27
0.0
 37
0.0
 40
1348.7846291773851
 41
1.5994694960212199
 42
50.0
 43
0.0
 44
0.0
 50
0.0
 51
0.0
 71
     0
 72
   100
 73
     1
 74
     1
 75
     0
 76
     0
 77
     0
 78
     0
  0
ENDTAB
  0
TABLE
  2
LTYPE
 70
    11
  0
LTYPE
  2
CONTINUOUS
 70
     0
  3
Solid line
 72
    65
 73
     0
 40
0.0
  0
ENDTAB
  0
TABLE
  2
LAYER
 70
     6
  0
LAYER
  2
0
 70
     0
 62
     7
  6
CONTINUOUS
  0
LAYER
  2
DATA
 70
     0
 62
     7
  6
CONTINUOUS
  0
LAYER
  2
DEFPOINTS
 70
     0
 62
     7
  6
CONTINUOUS
  0
LAYER
  2
HIBINO-BASE
 70
     0
 62
     7
  6
CONTINUOUS
  0
LAYER
  2
SPEC
 70
     0
 62
     7
  6
CONTINUOUS
  0
LAYER
  2
DIMNSIONS
 70
     0
 62
     7
  6
CONTINUOUS
  0
ENDTAB
  0
TABLE
  2
STYLE
 70
     3
  0
STYLE
  2
STANDARD
 70
     0
 40
0.0
 41
1.0
 50
0.0
 71
     0
 42
0.0
  3
txt
  4
BIGFONT.SHX
  0
ENDTAB
  0
TABLE
  2
VIEW
 70
     0
  0
ENDTAB
  0
TABLE
  2
UCS
 70
     0
  0
ENDTAB
  0
TABLE
  2
APPID
 70
     1
  0
APPID
  2
ACAD
 70
     0
  0
ENDTAB
  0
TABLE
  2
DIMSTYLE
 70
     1
  0
DIMSTYLE
  2
STANDARD
 70
     0
  3

  4

  5

  6

  7

 40
1.0
 41
0.18
 42
0.0625
 43
0.38
 44
0.18
 45
0.0
 46
0.0
 47
0.0
 48
0.0
140
0.18
141
0.09
142
0.0
143
25.399999999999999
144
1.0
145
0.0
146
1.0
147
0.09
 71
     0
 72
     0
 73
     1
 74
     1
 75
     0
 76
     0
 77
     0
 78
     0
170
     0
171
     2
172
     0
173
     0
174
     0
175
     0
176
     0
177
     0
178
     0
  0
ENDTAB
  0
ENDSEC
  0
SECTION
  2
BLOCKS
  0
BLOCK
  8
0
  2
$MODEL_SPACE
 70
     0
 10
0.0
 20
0.0
 30
0.0
  3
$MODEL_SPACE
  1

  0
ENDBLK
  5
86E
  8
0
  0
BLOCK
 67
     1
  8
0
  2
$PAPER_SPACE
 70
     0
 10
0.0
 20
0.0
 30
0.0
  3
$PAPER_SPACE
  1

  0
ENDBLK
  5
86A
 67
     1
  8
0
  0
ENDSEC
  0
SECTION
  2
ENTITIES
  0
LINE
  5
2E
  8
HIBINO-BASE
  6
CONTINUOUS
 62
     7
 10
-444.76606060606048
 20
650.0
 30
0.0
 11
455.23393939393929
 21
650.0
 31
0.0
  0
LINE
  5
2F
  8
HIBINO-BASE
  6
CONTINUOUS
 62
     7
 10
455.23393939393929
 20
-650.0
 30
0.0
 11
-444.76606060606048
 21
-650.0
 31
0.0
  0
LINE
  5
30
  8
HIBINO-BASE
  6
CONTINUOUS
 62
     7
 10
-444.76606060606048
 20
-650.0
 30
0.0
 11
-444.76606060606048
 21
650.0
 31
0.0
  0
TEXT
  5
31
  8
HIBINO-BASE
 62
     7
 10
-408.84606060606041
 20
-682.04338899999993
 30
0.0
 40
18.00022089843749
  1
Hibino Corporation
 41
0.8
 11
-408.84606060606041
 21
-664.04316810156229
 31
0.0
 73
     3
  0
LINE
  5
32
  8
HIBINO-BASE
  6
CONTINUOUS
 62
     7
 10
455.23393939393929
 20
650.0
 30
0.0
 11
455.23393939393929
 21
-650.0
 31
0.0
  0
LINE
  5
33
  8
HIBINO-BASE
  6
CONTINUOUS
 62
     7
 10
5.2339393939393926
 20
-537.49999999999989
 30
0.0
 11
455.23393939393929
 21
-537.49999999999989
 31
0.0
  0
LINE
  5
34
  8
HIBINO-BASE
  6
CONTINUOUS
 62
     7
 10
5.2339393939393926
 20
-650.0
 30
0.0
 11
5.2339393939393926
 21
-537.49999999999989
 31
0.0
  0
TEXT
  5
35
  8
HIBINO-BASE
 62
     7
 10
9.7339393939393943
 20
-550.04346666666652
 30
0.0
 40
8.1442057291666661
  1
NOTE
 41
0.8
 11
9.7339393939393943
 21
-541.89926093749978
 31
0.0
 73
     3
  0
LINE
  5
36
  8
HIBINO-BASE
  6
CONTINUOUS
 62
     7
 10
180.23393939393941
 20
-650.0
 30
0.0
 11
180.23393939393941
 21
-537.49999999999989
 31
0.0
  0
TEXT
  5
37
  8
HIBINO-BASE
 62
     7
 10
184.73393939393941
 20
-550.04346666666652
 30
0.0
 40
8.1442057291666661
  1
TITLE
 41
0.8
 11
184.73393939393941
 21
-541.89926093749978
 31
0.0
 73
     3
  0
TEXT
  5
38
  8
HIBINO-BASE
 62
     7
 10
255.57588939393929
 20
-682.04338899999993
 30
0.0
 40
18.00022089843749
  1
ヒビノ株式会社
 41
0.8
 11
255.57588939393929
 21
-664.04316810156229
 31
0.0
 73
     3
  0
LINE
  5
39
  8
HIBINO-BASE
  6
CONTINUOUS
 62
     7
 10
5.2339393939393926
 20
-599.99999999999989
 30
0.0
 11
455.23393939393929
 21
-599.99999999999989
 31
0.0
  0
TEXT
  5
3A
  8
HIBINO-BASE
 62
     7
 10
247.23393939393941
 20
-612.26186666666649
 30
0.0
 40
8.1442057291666661
  1
DRAWN
 41
0.8
 11
247.23393939393941
 21
-604.11766093749975
 31
0.0
 73
     3
  0
TEXT
  5
3B
  8
HIBINO-BASE
 62
     7
 10
122.23393939393939
 20
-612.26186666666649
 30
0.0
 40
8.1442057291666661
  1
DATE
 41
0.8
 11
122.23393939393939
 21
-604.11766093749975
 31
0.0
 73
     3
  0
TEXT
  5
3C
  8
HIBINO-BASE
 62
     7
 10
72.233939393939394
 20
-612.26186666666649
 30
0.0
 40
8.1442057291666661
  1
SCALE
 41
0.8
 11
72.233939393939394
 21
-604.11766093749975
 31
0.0
 73
     3
  0
TEXT
  5
3D
  8
HIBINO-BASE
 62
     7
 10
184.73393939393941
 20
-612.26186666666649
 30
0.0
 40
8.1442057291666661
  1
DESIGN
 41
0.8
 11
184.73393939393941
 21
-604.11766093749975
 31
0.0
 73
     3
  0
TEXT
  5
3E
  8
HIBINO-BASE
 62
     7
 10
372.23393939393929
 20
-612.26186666666649
 30
0.0
 40
8.1442057291666661
  1
DRAWING NO.
 41
0.8
 11
372.23393939393929
 21
-604.11766093749975
 31
0.0
 73
     3
  0
TEXT
  5
3F
  8
HIBINO-BASE
 62
     7
 10
309.73393939393929
 20
-612.26186666666649
 30
0.0
 40
8.1442057291666661
  1
CHECK
 41
0.8
 11
309.73393939393929
 21
-604.11766093749975
 31
0.0
 73
     3
  0
LINE
  5
40
  8
HIBINO-BASE
  6
CONTINUOUS
 62
     7
 10
77.108939393939366
 20
-643.75
 30
0.0
 11
95.858939393939394
 21
-624.99999999999989
 31
0.0
  0
TEXT
  5
41
  8
HIBINO-BASE
 62
     7
 10
77.394846838830588
 20
-633.52347858749306
 30
0.0
 40
9.5015733506944446
  1
1
 41
0.8
 11
77.394846838830588
 21
-624.0219052367986
 31
0.0
 73
     3
  0
LINE
  5
42
  8
HIBINO-BASE
  6
CONTINUOUS
 62
     7
 10
67.73393939393938
 20
-650.0
 30
0.0
 11
67.73393939393938
 21
-599.99999999999989
 31
0.0
  0
LINE
  5
43
  8
HIBINO-BASE
  6
CONTINUOUS
 62
     7
 10
117.73393939393939
 20
-650.0
 30
0.0
 11
117.73393939393939
 21
-599.99999999999989
 31
0.0
  0
LINE
  5
44
  8
HIBINO-BASE
  6
CONTINUOUS
 62
     7
 10
242.73393939393929
 20
-599.99999999999989
 30
0.0
 11
242.73393939393929
 21
-650.0
 31
0.0
  0
LINE
  5
45
  8
HIBINO-BASE
  6
CONTINUOUS
 62
     7
 10
367.73393939393929
 20
-599.99999999999989
 30
0.0
 11
367.73393939393929
 21
-650.0
 31
0.0
  0
LINE
  5
46
  8
HIBINO-BASE
  6
CONTINUOUS
 62
     7
 10
305.23393939393929
 20
-650.0
 30
0.0
 11
305.23393939393929
 21
-599.99999999999989
 31
0.0
  0
TEXT
  5
47
  8
HIBINO-BASE
 62
     7
 10
122.0166393939394
 20
-637.19871111111115
 30
0.0
 40
9.5015733506944446
  1
'04.6.
 41
0.8
 11
122.0166393939394
 21
-627.69713776041669
 31
0.0
 73
     3
  0
TEXT
  5
48
  8
HIBINO-BASE
 62
     7
 10
91.759394409684774
 20
-642.89847858749306
 30
0.0
 40
9.5015733506944446
  1
5
 41
0.8
 11
91.759394409684774
 21
-633.3969052367986
 31
0.0
 73
     3
  0
TEXT
  5
49
  8
HIBINO-BASE
 62
     7
 10
24.65060606060614
 20
-640.11999999999989
 30
0.0
 40
16.288411458333329
  1
A4
 41
0.8
 11
24.65060606060614
 21
-623.83158854166652
 31
0.0
 73
     3
  0
TEXT
  5
4A
  8
HIBINO-BASE
 62
     7
 10
10.02560606060606
 20
-613.09727499999985
 30
0.0
 40
8.1442057291666661
  1
PAPER SIZE
 41
0.8
 11
10.02560606060606
 21
-604.95306927083334
 31
0.0
 73
     3
  0
TEXT
  5
4B
  8
HIBINO-BASE
 62
     7
 10
-391.88577209266521
 20
-624.78027422458229
 30
0.0
 40
8.1442057291666661
  1
仕様および外観は予告なく変更されることがありますので、ご了承ください。
 41
0.8
 11
-391.88577209266521
 21
-616.63606849541566
 31
0.0
 73
     3
  0
LINE
  5
4C
  8
SPEC
  6
CONTINUOUS
 62
     7
 10
-399.942780603872
 20
600.03202521605965
 30
0.0
 11
337.55721939612789
 21
600.03202521605965
 31
0.0
  0
LINE
  5
4D
  8
SPEC
  6
CONTINUOUS
 62
     7
 10
-399.942780603872
 20
581.28202521605965
 30
0.0
 11
337.55721939612789
 21
581.28202521605965
 31
0.0
  0
LINE
  5
4E
  8
SPEC
  6
CONTINUOUS
 62
     7
 10
-399.942780603872
 20
525.03202521605965
 30
0.0
 11
337.55721939612789
 21
525.03202521605965
 31
0.0
  0
LINE
  5
4F
  8
SPEC
  6
CONTINUOUS
 62
     7
 10
-399.942780603872
 20
543.78202521605965
 30
0.0
 11
337.55721939612789
 21
543.78202521605965
 31
0.0
  0
LINE
  5
50
  8
SPEC
  6
CONTINUOUS
 62
     7
 10
-399.942780603872
 20
562.53202521605965
 30
0.0
 11
337.55721939612789
 21
562.53202521605965
 31
0.0
  0
LINE
  5
51
  8
SPEC
  6
CONTINUOUS
 62
     7
 10
-399.942780603872
 20
600.03202521605965
 30
0.0
 11
-399.942780603872
 21
525.03202521605965
 31
0.0
  0
TEXT
  5
52
  8
SPEC
 62
     7
 10
-386.437066787003
 20
606.99837521605957
 30
0.0
 40
12.21630859375
  1
仕様
 41
0.8
 11
-386.437066787003
 21
619.21468380980957
 31
0.0
 73
     3
  0
LINE
  5
53
  8
SPEC
  6
CONTINUOUS
 62
     7
 10
-237.44278060387279
 20
600.03202521605965
 30
0.0
 11
-237.44278060387279
 21
525.03202521605965
 31
0.0
  0
LINE
  5
54
  8
SPEC
  6
CONTINUOUS
 62
     7
 10
337.55721939612789
 20
600.03202521605965
 30
0.0
 11
337.55721939612789
 21
525.03202521605965
 31
0.0
  0
TEXT
  5
55
  8
SPEC
 62
     7
 10
-395.44278060387211
 20
585.73987403630565
 30
0.0
 40
9.5015562499999984
  1
形式
 41
0.8
 11
-395.44278060387211
 21
595.24143028630556
 31
0.0
 73
     3
  0
TEXT
  5
56
  8
SPEC
 62
     7
 10
-395.09098776032789
 20
567.13797406986555
 30
0.0
 40
8.8890284793101824
  1
電源
 41
0.8
 11
-395.09098776032789
 21
576.02700254917556
 31
0.0
 73
     3
  0
TEXT
  5
57
  8
SPEC
 62
     7
 10
-229.5834692442011
 20
566.89620152903808
 30
0.0
 40
9.5015733506944446
  1
AC100V、50/60Hz
 41
0.8
 11
-229.5834692442011
 21
576.39777487973254
 31
0.0
 73
     3
  0
TEXT
  5
58
  8
SPEC
 62
     7
 10
-395.27629621738748
 20
548.02493335753365
 30
0.0
 40
9.5015733506944446
  1
消費電力
 41
0.8
 11
-395.27629621738748
 21
557.526506708228
 31
0.0
 73
     3
  0
TEXT
  5
59
  8
SPEC
 62
     7
 10
-230.05394681706059
 20
548.2912636357554
 30
0.0
 40
9.5015733506944446
  1
30W
 41
0.8
 11
-230.05394681706059
 21
557.79283698644986
 31
0.0
 73
     3
  0
TEXT
  5
5A
  8
SPEC
 62
     7
 10
-395.59358039768341
 20
529.42805366463597
 30
0.0
 40
9.5015733506944446
  1
寸法（W x H x D）・重量　
 41
0.8
 11
-395.59358039768341
 21
538.92962701533054
 31
0.0
 73
     3
  0
TEXT
  5
5B
  8
SPEC
 62
     7
 10
-229.8848285829072
 20
529.66634220720175
 30
0.0
 40
9.5015733506944446
  1
483X45X201mm（突起部含まず）、3.6Kg
 41
0.8
 11
-229.8848285829072
 21
539.16791555789621
 31
0.0
 73
     3
  0
TEXT
  5
5C
  8
SPEC
 62
     7
 10
-229.8180244793439
 20
585.6996297091348
 30
0.0
 40
9.5015733506944446
  1
DriveRack 480R用電源
 41
0.8
 11
-229.8180244793439
 21
595.20120305982925
 31
0.0
 73
     3
  0
TEXT
  5
5D
  8
DIMNSIONS
 62
     7
 10
-94.766060606060606
 20
-588.65255000000002
 30
0.0
 40
12.21630859375
  1
(単位：mm)
 41
0.8
 11
-94.766060606060606
 21
-576.43624140625002
 31
0.0
 73
     3
  0
LINE
  5
5E
  8
DIMNSIONS
  6
CONTINUOUS
 62
     7
 10
-389.3575431927942
 20
-279.84638818737108
 30
0.0
 11
-367.81958795106198
 21
-279.84638818737108
 31
0.0
  0
LINE
  5
5F
  8
DIMNSIONS
  6
CONTINUOUS
 62
     7
 10
-367.99338283682442
 20
-279.84638818737108
 30
0.0
 11
-383.79338283682432
 21
-279.84638818737108
 31
0.0
  0
LINE
  5
60
  8
DIMNSIONS
  6
CONTINUOUS
 62
     7
 10
-367.99338283682442
 20
-276.84638818737108
 30
0.0
 11
-383.79338283682432
 21
-276.84638818737108
 31
0.0
  0
LINE
  5
61
  8
DIMNSIONS
  6
CONTINUOUS
 62
     7
 10
-373.79338283682432
 20
-276.84638818737108
 30
0.0
 11
-373.79338283682432
 21
-279.84638818737108
 31
0.0
  0
LINE
  5
62
  8
DIMNSIONS
  6
CONTINUOUS
 62
     7
 10
-373.79338283682432
 20
-279.84638818737108
 30
0.0
 11
-373.79338283682432
 21
-304.84638818737119
 31
0.0
  0
LINE
  5
63
  8
DIMNSIONS
  6
CONTINUOUS
 62
     7
 10
-373.79338283682432
 20
-279.84638818737108
 30
0.0
 11
-370.44318386107318
 21
-292.34950098033988
 31
0.0
  0
LINE
  5
64
  8
DIMNSIONS
  6
CONTINUOUS
 62
     7
 10
-373.79338283682432
 20
-279.84638818737108
 30
0.0
 11
-377.14358181257558
 21
-292.34950098033988
 31
0.0
  0
LINE
  5
65
  8
DIMNSIONS
  6
CONTINUOUS
 62
     7
 10
-373.79338283682432
 20
-276.84638818737108
 30
0.0
 11
-373.79338283682432
 21
-262.11604956124518
 31
0.0
  0
LINE
  5
66
  8
DIMNSIONS
  6
CONTINUOUS
 62
     7
 10
-373.79338283682432
 20
-276.84638818737108
 30
0.0
 11
-377.14358181257558
 21
-264.34327539440238
 31
0.0
  0
LINE
  5
67
  8
DIMNSIONS
  6
CONTINUOUS
 62
     7
 10
-373.79338283682432
 20
-276.84638818737108
 30
0.0
 11
-370.44318386107318
 21
-264.34327539440238
 31
0.0
  0
TEXT
  5
68
  8
DIMNSIONS
 62
     7
 10
-376.99893839238001
 20
-270.05354956124518
 30
0.0
 40
13.57367621527778
  1
3
 50
90.0
 41
0.8
 11
-390.57261460765778
 21
-270.05354956124518
 31
0.0
 73
     3
  0
LINE
  5
69
  8
DIMNSIONS
  6
CONTINUOUS
 62
     7
 10
-382.99887446096727
 20
-439.99900602370019
 30
0.0
 11
-409.99887446096727
 21
-439.99900602370019
 31
0.0
  0
LINE
  5
6A
  8
DIMNSIONS
  6
CONTINUOUS
 62
     7
 10
-382.99887446096727
 20
-394.99900602370019
 30
0.0
 11
-409.99887446096727
 21
-394.99900602370019
 31
0.0
  0
LINE
  5
6B
  8
DIMNSIONS
  6
CONTINUOUS
 62
     7
 10
-399.99887446096727
 20
-439.99900602370019
 30
0.0
 11
-399.99887446096727
 21
-394.99900602370019
 31
0.0
  0
LINE
  5
6C
  8
DIMNSIONS
  6
CONTINUOUS
 62
     7
 10
-399.99887446096727
 20
-439.99900602370019
 30
0.0
 11
-403.34907343671853
 21
-427.49589323073138
 31
0.0
  0
LINE
  5
6D
  8
DIMNSIONS
  6
CONTINUOUS
 62
     7
 10
-399.99887446096727
 20
-439.99900602370019
 30
0.0
 11
-396.64867548521607
 21
-427.49589323073138
 31
0.0
  0
LINE
  5
6E
  8
DIMNSIONS
  6
CONTINUOUS
 62
     7
 10
-399.99887446096727
 20
-394.99900602370019
 30
0.0
 11
-396.64867548521607
 21
-407.50211881666888
 31
0.0
  0
LINE
  5
6F
  8
DIMNSIONS
  6
CONTINUOUS
 62
     7
 10
-399.99887446096727
 20
-394.99900602370019
 30
0.0
 11
-403.34907343671853
 21
-407.50211881666888
 31
0.0
  0
TEXT
  5
70
  8
DIMNSIONS
 62
     7
 10
-403.20443001652279
 20
-425.43650602370019
 30
0.0
 40
13.57367621527778
  1
45
 50
90.0
 41
0.8
 11
-416.77810623180062
 21
-425.43650602370019
 31
0.0
 73
     3
  0
LINE
  5
71
  8
DIMNSIONS
  6
CONTINUOUS
 62
     7
 10
-382.99887446096727
 20
-394.99900602370019
 30
0.0
 11
-365.30384187578659
 21
-394.99900602370019
 31
0.0
  0
LINE
  5
72
  8
DIMNSIONS
  6
CONTINUOUS
 62
     7
 10
-382.99887446096727
 20
-439.99900602370019
 30
0.0
 11
-365.30384187578659
 21
-439.99900602370019
 31
0.0
  0
LINE
  5
73
  8
DIMNSIONS
  6
CONTINUOUS
 62
     7
 10
-360.04129757352689
 20
-461.21010071801322
 30
0.0
 11
-360.04129757352689
 21
-445.0
 31
0.0
  0
LINE
  5
74
  8
DIMNSIONS
  6
CONTINUOUS
 62
     7
 10
-360.04129757352689
 20
-452.59084550971909
 30
0.0
 11
-360.04129757352689
 21
-489.79183948601877
 31
0.0
  0
LINE
  5
75
  8
DIMNSIONS
  6
CONTINUOUS
 62
     7
 10
122.9587024264731
 20
-452.59084550971909
 30
0.0
 11
122.9587024264731
 21
-489.79183948601877
 31
0.0
  0
LINE
  5
76
  8
DIMNSIONS
  6
CONTINUOUS
 62
     7
 10
-360.04129757352689
 20
-479.79183948601877
 30
0.0
 11
122.9587024264731
 21
-479.79183948601877
 31
0.0
  0
LINE
  5
77
  8
DIMNSIONS
  6
CONTINUOUS
 62
     7
 10
-360.04129757352689
 20
-479.79183948601877
 30
0.0
 11
-347.53818478055808
 21
-476.44164051026758
 31
0.0
  0
LINE
  5
78
  8
DIMNSIONS
  6
CONTINUOUS
 62
     7
 10
-360.04129757352689
 20
-479.79183948601877
 30
0.0
 11
-347.53818478055808
 21
-483.14203846176991
 31
0.0
  0
LINE
  5
79
  8
DIMNSIONS
  6
CONTINUOUS
 62
     7
 10
122.9587024264731
 20
-479.79183948601877
 30
0.0
 11
110.4555896335043
 21
-483.14203846176991
 31
0.0
  0
LINE
  5
7A
  8
DIMNSIONS
  6
CONTINUOUS
 62
     7
 10
122.9587024264731
 20
-479.79183948601877
 30
0.0
 11
110.4555896335043
 21
-476.44164051026758
 31
0.0
  0
TEXT
  5
7B
  8
DIMNSIONS
 62
     7
 10
-130.44754841461469
 20
-476.5862839304632
 30
0.0
 40
13.57367621527778
  1
483
 41
0.8
 11
-130.44754841461469
 21
-463.01260771518548
 31
0.0
 73
     3
  0
LINE
  5
7C
  8
DIMNSIONS
  6
CONTINUOUS
 62
     7
 10
122.9587024264731
 20
-452.59084550971909
 30
0.0
 11
122.9587024264731
 21
-445.0
 31
0.0
  0
LINE
  5
7D
  8
DIMNSIONS
  6
CONTINUOUS
 62
     7
 10
-367.99338283682442
 20
-279.84638818737108
 30
0.0
 11
-410.8575431927942
 21
-279.84638818737108
 31
0.0
  0
LINE
  5
7E
  8
DIMNSIONS
  6
CONTINUOUS
 62
     7
 10
-343.7526352584137
 20
-79.845855944788411
 30
0.0
 11
-410.8575431927942
 21
-79.845855944788411
 31
0.0
  0
LINE
  5
7F
  8
DIMNSIONS
  6
CONTINUOUS
 62
     7
 10
-400.85754319279408
 20
-279.84638818737108
 30
0.0
 11
-400.85754319279408
 21
-79.845855944788411
 31
0.0
  0
LINE
  5
80
  8
DIMNSIONS
  6
CONTINUOUS
 62
     7
 10
-400.85754319279408
 20
-279.84638818737108
 30
0.0
 11
-404.20774216854528
 21
-267.34327539440238
 31
0.0
  0
LINE
  5
81
  8
DIMNSIONS
  6
CONTINUOUS
 62
     7
 10
-400.85754319279408
 20
-279.84638818737108
 30
0.0
 11
-397.507344217043
 21
-267.34327539440238
 31
0.0
  0
LINE
  5
82
  8
DIMNSIONS
  6
CONTINUOUS
 62
     7
 10
-400.85754319279408
 20
-79.845855944788411
 30
0.0
 11
-397.507344217043
 21
-92.348968737757147
 31
0.0
  0
LINE
  5
83
  8
DIMNSIONS
  6
CONTINUOUS
 62
     7
 10
-400.85754319279408
 20
-79.845855944788411
 30
0.0
 11
-404.20774216854528
 21
-92.348968737757147
 31
0.0
  0
TEXT
  5
84
  8
DIMNSIONS
 62
     7
 10
-404.0630987483496
 20
-191.75237290716751
 30
0.0
 40
13.57367621527778
  1
201
 50
90.0
 41
0.8
 11
-417.63677496362737
 21
-191.75237290716751
 31
0.0
 73
     3
  0
LINE
  5
85
  8
DIMNSIONS
  6
CONTINUOUS
 62
     7
 10
-367.99338283682442
 20
-276.84638818737108
 30
0.0
 11
-365.31680524000109
 21
-276.84638818737108
 31
0.0
  0
LINE
  5
86
  8
DIMNSIONS
  6
CONTINUOUS
 62
     7
 10
-338.66319342737279
 20
-65.0
 30
0.0
 11
-338.66319342737279
 21
-0.3605157360642295
 31
0.0
  0
LINE
  5
87
  8
DIMNSIONS
  6
CONTINUOUS
 62
     7
 10
100.3368065726272
 20
-65.0
 30
0.0
 11
100.3368065726272
 21
-0.3605157360642295
 31
0.0
  0
LINE
  5
88
  8
DIMNSIONS
  6
CONTINUOUS
 62
     7
 10
-338.66319342737279
 20
-10.360515736064221
 30
0.0
 11
100.3368065726272
 21
-10.360515736064221
 31
0.0
  0
LINE
  5
89
  8
DIMNSIONS
  6
CONTINUOUS
 62
     7
 10
-338.66319342737279
 20
-10.360515736064221
 30
0.0
 11
-326.1600806344041
 21
-7.010316760313013
 31
0.0
  0
LINE
  5
8A
  8
DIMNSIONS
  6
CONTINUOUS
 62
     7
 10
-338.66319342737279
 20
-10.360515736064221
 30
0.0
 11
-326.1600806344041
 21
-13.71071471181544
 31
0.0
  0
LINE
  5
8B
  8
DIMNSIONS
  6
CONTINUOUS
 62
     7
 10
100.3368065726272
 20
-10.360515736064221
 30
0.0
 11
87.833693779658446
 21
-13.71071471181544
 31
0.0
  0
LINE
  5
8C
  8
DIMNSIONS
  6
CONTINUOUS
 62
     7
 10
100.3368065726272
 20
-10.360515736064221
 30
0.0
 11
87.833693779658446
 21
-7.0103167603130094
 31
0.0
  0
TEXT
  5
8D
  8
DIMNSIONS
 62
     7
 10
-132.39236009403939
 20
-5.3910712916197836
 30
0.0
 40
13.57367621527778
  1
439
 41
0.8
 11
-132.39236009403939
 21
8.1826049236579941
 31
0.0
 73
     3
  0
LINE
  5
8E
  8
DIMNSIONS
  6
CONTINUOUS
 62
     7
 10
-336.66319342737268
 20
-69.845855944788411
 30
0.0
 11
-336.66319342737268
 21
-40.386866618635679
 31
0.0
  0
LINE
  5
8F
  8
DIMNSIONS
  6
CONTINUOUS
 62
     7
 10
98.336806572627282
 20
-69.845855944788411
 30
0.0
 11
98.336806572627282
 21
-40.386866618635679
 31
0.0
  0
LINE
  5
90
  8
DIMNSIONS
  6
CONTINUOUS
 62
     7
 10
-336.66319342737268
 20
-50.386866618635679
 30
0.0
 11
98.336806572627282
 21
-50.386866618635679
 31
0.0
  0
LINE
  5
91
  8
DIMNSIONS
  6
CONTINUOUS
 62
     7
 10
-336.66319342737268
 20
-50.386866618635679
 30
0.0
 11
-324.16008063440393
 21
-47.03666764288446
 31
0.0
  0
LINE
  5
92
  8
DIMNSIONS
  6
CONTINUOUS
 62
     7
 10
-336.66319342737268
 20
-50.386866618635679
 30
0.0
 11
-324.16008063440393
 21
-53.737065594386912
 31
0.0
  0
LINE
  5
93
  8
DIMNSIONS
  6
CONTINUOUS
 62
     7
 10
98.336806572627282
 20
-50.386866618635679
 30
0.0
 11
85.833693779658546
 21
-53.737065594386912
 31
0.0
  0
LINE
  5
94
  8
DIMNSIONS
  6
CONTINUOUS
 62
     7
 10
98.336806572627282
 20
-50.386866618635679
 30
0.0
 11
85.833693779658546
 21
-47.03666764288446
 31
0.0
  0
TEXT
  5
95
  8
DIMNSIONS
 62
     7
 10
-132.3923600940393
 20
-45.417422174191238
 30
0.0
 40
13.57367621527778
  1
435
 41
0.8
 11
-132.3923600940393
 21
-31.84374595891347
 31
0.0
 73
     3
  0
LINE
  5
96
  8
DIMNSIONS
  6
CONTINUOUS
 62
     7
 10
-400.85754319279408
 20
-284.84638818737108
 30
0.0
 11
-400.85754319279408
 21
-279.84638818737108
 31
0.0
  0
LINE
  5
97
  8
DIMNSIONS
  6
CONTINUOUS
 62
     7
 10
-400.85754319279408
 20
-279.84638818737108
 30
0.0
 11
-400.85754319279408
 21
-254.8463881873711
 31
0.0
  0
LINE
  5
98
  8
DIMNSIONS
  6
CONTINUOUS
 62
     7
 10
-400.85754319279408
 20
-279.84638818737108
 30
0.0
 11
-404.20774216854528
 21
-267.34327539440238
 31
0.0
  0
LINE
  5
99
  8
DIMNSIONS
  6
CONTINUOUS
 62
     7
 10
-400.85754319279408
 20
-279.84638818737108
 30
0.0
 11
-397.507344217043
 21
-267.34327539440238
 31
0.0
  0
LINE
  5
9A
  8
DIMNSIONS
  6
CONTINUOUS
 62
     7
 10
-400.85754319279408
 20
-284.84638818737108
 30
0.0
 11
-400.85754319279408
 21
-302.4375
 31
0.0
  0
LINE
  5
9B
  8
DIMNSIONS
  6
CONTINUOUS
 62
     7
 10
-400.85754319279408
 20
-284.84638818737108
 30
0.0
 11
-397.507344217043
 21
-297.34950098033983
 31
0.0
  0
LINE
  5
9C
  8
DIMNSIONS
  6
CONTINUOUS
 62
     7
 10
-400.85754319279408
 20
-284.84638818737108
 30
0.0
 11
-404.20774216854528
 21
-297.34950098033983
 31
0.0
  0
TEXT
  5
9D
  8
DIMNSIONS
 62
     7
 10
-404.0630987483496
 20
-302.4375
 30
0.0
 40
13.57367621527778
  1
5
 50
90.0
 41
0.8
 11
-417.63677496362737
 21
-302.4375
 31
0.0
 73
     3
  0
LINE
  5
9E
  8
DIMNSIONS
  6
CONTINUOUS
 62
     7
 10
-346.66319342737268
 20
-79.845855944788411
 30
0.0
 11
-410.8575431927942
 21
-79.845855944788411
 31
0.0
  0
LINE
  5
9F
  8
DIMNSIONS
  6
CONTINUOUS
 62
     7
 10
-346.66319342737268
 20
-77.846341330669702
 30
0.0
 11
-410.8575431927942
 21
-77.846341330669702
 31
0.0
  0
LINE
  5
A0
  8
DIMNSIONS
  6
CONTINUOUS
 62
     7
 10
-400.85754319279408
 20
-77.846341330669702
 30
0.0
 11
-400.85754319279408
 21
-79.845855944788411
 31
0.0
  0
LINE
  5
A1
  8
DIMNSIONS
  6
CONTINUOUS
 62
     7
 10
-400.85754319279408
 20
-79.845855944788411
 30
0.0
 11
-400.85754319279408
 21
-104.8458559447884
 31
0.0
  0
LINE
  5
A2
  8
DIMNSIONS
  6
CONTINUOUS
 62
     7
 10
-400.85754319279408
 20
-79.845855944788411
 30
0.0
 11
-397.507344217043
 21
-92.348968737757147
 31
0.0
  0
LINE
  5
A3
  8
DIMNSIONS
  6
CONTINUOUS
 62
     7
 10
-400.85754319279408
 20
-79.845855944788411
 30
0.0
 11
-404.20774216854528
 21
-92.348968737757147
 31
0.0
  0
LINE
  5
A4
  8
DIMNSIONS
  6
CONTINUOUS
 62
     7
 10
-400.85754319279408
 20
-77.846341330669702
 30
0.0
 11
-400.85754319279408
 21
-52.980555555555561
 31
0.0
  0
LINE
  5
A5
  8
DIMNSIONS
  6
CONTINUOUS
 62
     7
 10
-400.85754319279408
 20
-77.846341330669702
 30
0.0
 11
-404.20774216854528
 21
-65.343228537700938
 31
0.0
  0
LINE
  5
A6
  8
DIMNSIONS
  6
CONTINUOUS
 62
     7
 10
-400.85754319279408
 20
-77.846341330669702
 30
0.0
 11
-397.507344217043
 21
-65.343228537700938
 31
0.0
  0
TEXT
  5
A7
  8
DIMNSIONS
 62
     7
 10
-405.82698763723869
 20
-61.79999999999999
 30
0.0
 40
13.57367621527778
  1
3
 50
90.0
 41
0.8
 11
-419.40066385251652
 21
-61.79999999999999
 31
0.0
 73
     3
  0
LINE
  5
A8
  8
DIMNSIONS
  6
CONTINUOUS
 62
     7
 10
100.3368065726272
 20
-65.0
 30
0.0
 11
100.3368065726272
 21
-98.0
 31
0.0
  0
LINE
  5
A9
  8
DIMNSIONS
  6
CONTINUOUS
 62
     7
 10
-346.66319342737268
 20
-77.846341330669702
 30
0.0
 11
-80.5
 21
-77.846341330669702
 31
0.0
  0
LINE
  5
AA
  8
DIMNSIONS
  6
CONTINUOUS
 62
     7
 10
-338.66319342737279
 20
-65.0
 30
0.0
 11
-338.66319342737279
 21
-98.0
 31
0.0
  0
LINE
  5
AB
  8
DIMNSIONS
  6
CONTINUOUS
 62
     7
 10
-365.31680524000109
 20
-279.84638818737108
 30
0.0
 11
-410.8575431927942
 21
-279.84638818737108
 31
0.0
  0
LINE
  5
AC
  8
DIMNSIONS
  6
CONTINUOUS
 62
     7
 10
-357.5
 20
-284.84638818737108
 30
0.0
 11
-410.8575431927942
 21
-284.84638818737108
 31
0.0
  0
LINE
  5
AD
  8
DIMNSIONS
  6
CONTINUOUS
 62
     7
 10
-357.5
 20
-284.84638818737108
 30
0.0
 11
69.0
 21
-284.84638818737108
 31
0.0
  0
POLYLINE
  5
AE
  8
DATA
  6
CONTINUOUS
 62
     7
 66
     1
 10
0.0
 20
0.0
 30
0.0
 70
     1
  0
VERTEX
  5
88D
  8
DATA
  6
CONTINUOUS
 62
     7
 10
220.0569666364668
 20
-395.55892484156482
 30
0.0
  0
VERTEX
  5
88E
  8
DATA
  6
CONTINUOUS
 62
     7
 10
220.0569666364668
 20
-439.95892484156468
 30
0.0
  0
VERTEX
  5
88F
  8
DATA
  6
CONTINUOUS
 62
     7
 10
420.05696663646683
 20
-439.95892484156468
 30
0.0
  0
VERTEX
  5
890
  8
DATA
  6
CONTINUOUS
 62
     7
 10
420.05696663646683
 20
-395.55892484156482
 30
0.0
  0
SEQEND
  5
891
  8
DATA
  6
CONTINUOUS
 62
     7
  0
POLYLINE
  5
B4
  8
DATA
  6
CONTINUOUS
 62
     7
 66
     1
 10
0.0
 20
0.0
 30
0.0
 70
     1
  0
VERTEX
  5
892
  8
DATA
  6
CONTINUOUS
 62
     7
 10
-360.16319342737228
 20
-276.84638818737108
 30
0.0
  0
VERTEX
  5
893
  8
DATA
  6
CONTINUOUS
 62
     7
 10
121.8368065726268
 20
-276.84638818737108
 30
0.0
  0
VERTEX
  5
894
  8
DATA
  6
CONTINUOUS
 62
     7
 10
121.8368065726268
 20
-279.84638818737108
 30
0.0
  0
VERTEX
  5
895
  8
DATA
  6
CONTINUOUS
 62
     7
 10
-360.16319342737228
 20
-279.84638818737108
 30
0.0
  0
SEQEND
  5
896
  8
DATA
  6
CONTINUOUS
 62
     7
  0
ARC
  5
BA
  8
DATA
  6
CONTINUOUS
 62
     7
 10
-352.84129757352679
 20
-401.99900602370019
 30
0.0
 40
3.1999999999999882
 50
90.0
 51
270.0
  0
ARC
  5
BB
  8
DATA
  6
CONTINUOUS
 62
     7
 10
-348.24129757352688
 20
-401.99900602370019
 30
0.0
 40
3.1999999999999882
 50
270.0
 51
90.0
  0
LINE
  5
BC
  8
DATA
  6
CONTINUOUS
 62
     7
 10
-352.84129757352679
 20
-398.79900602370031
 30
0.0
 11
-348.24129757352688
 21
-398.79900602370031
 31
0.0
  0
LINE
  5
BD
  8
DATA
  6
CONTINUOUS
 62
     7
 10
-352.84129757352679
 20
-405.19900602370018
 30
0.0
 11
-348.24129757352688
 21
-405.19900602370018
 31
0.0
  0
ARC
  5
BE
  8
DATA
  6
CONTINUOUS
 62
     7
 10
112.1587024264722
 20
-401.99900602370019
 30
0.0
 40
3.1999999999999882
 50
90.0
 51
270.0
  0
ARC
  5
BF
  8
DATA
  6
CONTINUOUS
 62
     7
 10
116.7587024264721
 20
-401.99900602370019
 30
0.0
 40
3.1999999999999882
 50
270.0
 51
90.0
  0
LINE
  5
C0
  8
DATA
  6
CONTINUOUS
 62
     7
 10
112.1587024264722
 20
-398.79900602370031
 30
0.0
 11
116.7587024264721
 21
-398.79900602370031
 31
0.0
  0
LINE
  5
C1
  8
DATA
  6
CONTINUOUS
 62
     7
 10
112.1587024264722
 20
-405.19900602370018
 30
0.0
 11
116.7587024264721
 21
-405.19900602370018
 31
0.0
  0
ARC
  5
C2
  8
DATA
  6
CONTINUOUS
 62
     7
 10
-352.84129757352679
 20
-433.59900602370021
 30
0.0
 40
3.1999999999999882
 50
90.0
 51
270.0
  0
ARC
  5
C3
  8
DATA
  6
CONTINUOUS
 62
     7
 10
-348.24129757352688
 20
-433.59900602370021
 30
0.0
 40
3.1999999999999882
 50
270.0
 51
90.0
  0
LINE
  5
C4
  8
DATA
  6
CONTINUOUS
 62
     7
 10
-352.84129757352679
 20
-436.7990060237002
 30
0.0
 11
-348.24129757352688
 21
-436.7990060237002
 31
0.0
  0
LINE
  5
C5
  8
DATA
  6
CONTINUOUS
 62
     7
 10
-352.84129757352679
 20
-430.39900602370022
 30
0.0
 11
-348.24129757352688
 21
-430.39900602370022
 31
0.0
  0
ARC
  5
C6
  8
DATA
  6
CONTINUOUS
 62
     7
 10
112.1587024264722
 20
-433.59900602370021
 30
0.0
 40
3.1999999999999882
 50
90.0
 51
270.0
  0
ARC
  5
C7
  8
DATA
  6
CONTINUOUS
 62
     7
 10
116.7587024264721
 20
-433.59900602370021
 30
0.0
 40
3.1999999999999882
 50
270.0
 51
90.0
  0
LINE
  5
C8
  8
DATA
  6
CONTINUOUS
 62
     7
 10
112.1587024264722
 20
-436.7990060237002
 30
0.0
 11
116.7587024264721
 21
-436.7990060237002
 31
0.0
  0
LINE
  5
C9
  8
DATA
  6
CONTINUOUS
 62
     7
 10
112.1587024264722
 20
-430.39900602370022
 30
0.0
 11
116.7587024264721
 21
-430.39900602370022
 31
0.0
  0
CIRCLE
  5
CA
  8
DATA
  6
CONTINUOUS
 62
     7
 10
-329.97033299528999
 20
-405.06302734588058
 30
0.0
 40
2.8000000000000109
  0
POLYLINE
  5
CB
  8
DATA
  6
CONTINUOUS
 62
     7
 66
     1
 10
0.0
 20
0.0
 30
0.0
 70
     1
  0
VERTEX
  5
897
  8
DATA
  6
CONTINUOUS
 62
     7
 10
-328.57033299529002
 20
-405.06302734588058
 30
0.0
  0
VERTEX
  5
898
  8
DATA
  6
CONTINUOUS
 62
     7
 10
-329.27033299529
 20
-403.85059178058242
 30
0.0
  0
VERTEX
  5
899
  8
DATA
  6
CONTINUOUS
 62
     7
 10
-330.67033299528998
 20
-403.85059178058242
 30
0.0
  0
VERTEX
  5
89A
  8
DATA
  6
CONTINUOUS
 62
     7
 10
-331.37033299529003
 20
-405.06302734588058
 30
0.0
  0
VERTEX
  5
89B
  8
DATA
  6
CONTINUOUS
 62
     7
 10
-330.6703329952901
 20
-406.27546291117892
 30
0.0
  0
VERTEX
  5
89C
  8
DATA
  6
CONTINUOUS
 62
     7
 10
-329.27033299529
 20
-406.27546291117892
 30
0.0
  0
SEQEND
  5
89D
  8
DATA
  6
CONTINUOUS
 62
     7
  0
CIRCLE
  5
D3
  8
DATA
  6
CONTINUOUS
 62
     7
 10
92.992109182820641
 20
-405.01554010704427
 30
0.0
 40
2.8000000000000109
  0
POLYLINE
  5
D4
  8
DATA
  6
CONTINUOUS
 62
     7
 66
     1
 10
0.0
 20
0.0
 30
0.0
 70
     1
  0
VERTEX
  5
89E
  8
DATA
  6
CONTINUOUS
 62
     7
 10
91.592109182820664
 20
-405.01554010704427
 30
0.0
  0
VERTEX
  5
89F
  8
DATA
  6
CONTINUOUS
 62
     7
 10
92.292109182820582
 20
-403.80310454174611
 30
0.0
  0
VERTEX
  5
8A0
  8
DATA
  6
CONTINUOUS
 62
     7
 10
93.692109182820644
 20
-403.80310454174611
 30
0.0
  0
VERTEX
  5
8A1
  8
DATA
  6
CONTINUOUS
 62
     7
 10
94.392109182820619
 20
-405.01554010704427
 30
0.0
  0
VERTEX
  5
8A2
  8
DATA
  6
CONTINUOUS
 62
     7
 10
93.692109182820687
 20
-406.2279756723425
 30
0.0
  0
VERTEX
  5
8A3
  8
DATA
  6
CONTINUOUS
 62
     7
 10
92.292109182820582
 20
-406.2279756723425
 30
0.0
  0
SEQEND
  5
8A4
  8
DATA
  6
CONTINUOUS
 62
     7
  0
CIRCLE
  5
DC
  8
DATA
  6
CONTINUOUS
 62
     7
 10
92.974786636451398
 20
-429.99130567537509
 30
0.0
 40
2.8000000000000109
  0
POLYLINE
  5
DD
  8
DATA
  6
CONTINUOUS
 62
     7
 66
     1
 10
0.0
 20
0.0
 30
0.0
 70
     1
  0
VERTEX
  5
8A5
  8
DATA
  6
CONTINUOUS
 62
     7
 10
91.574786636451435
 20
-429.99130567537509
 30
0.0
  0
VERTEX
  5
8A6
  8
DATA
  6
CONTINUOUS
 62
     7
 10
92.274786636451338
 20
-431.20374124067308
 30
0.0
  0
VERTEX
  5
8A7
  8
DATA
  6
CONTINUOUS
 62
     7
 10
93.674786636451401
 20
-431.20374124067308
 30
0.0
  0
VERTEX
  5
8A8
  8
DATA
  6
CONTINUOUS
 62
     7
 10
94.374786636451404
 20
-429.99130567537509
 30
0.0
  0
VERTEX
  5
8A9
  8
DATA
  6
CONTINUOUS
 62
     7
 10
93.674786636451458
 20
-428.77887011007692
 30
0.0
  0
VERTEX
  5
8AA
  8
DATA
  6
CONTINUOUS
 62
     7
 10
92.274786636451338
 20
-428.77887011007692
 30
0.0
  0
SEQEND
  5
8AB
  8
DATA
  6
CONTINUOUS
 62
     7
  0
POLYLINE
  5
E5
  8
DATA
  6
CONTINUOUS
 62
     7
 66
     1
 10
0.0
 20
0.0
 30
0.0
 70
     1
  0
VERTEX
  5
8AC
  8
DATA
  6
CONTINUOUS
 62
     7
 10
-329.16319342737222
 20
-276.35638818737112
 30
0.0
  0
VERTEX
  5
8AD
  8
DATA
  6
CONTINUOUS
 62
     7
 10
90.836806572626799
 20
-276.35638818737112
 30
0.0
  0
VERTEX
  5
8AE
  8
DATA
  6
CONTINUOUS
 62
     7
 10
90.836806572626799
 20
-276.84638818737108
 30
0.0
  0
VERTEX
  5
8AF
  8
DATA
  6
CONTINUOUS
 62
     7
 10
-329.16319342737222
 20
-276.84638818737108
 30
0.0
  0
SEQEND
  5
8B0
  8
DATA
  6
CONTINUOUS
 62
     7
  0
ARC
  5
EB
  8
DATA
  6
CONTINUOUS
 62
     7
 10
-334.12389050239028
 20
-259.36993060434889
 30
0.0
 40
4.8384615384617176
 50
136.99713135190601
 51
223.00286864809399
  0
LINE
  5
EC
  8
DATA
  6
CONTINUOUS
 62
     7
 10
-337.66235204085223
 20
-256.06993060434888
 30
0.0
 11
-336.66235204085223
 21
-256.06993060434888
 31
0.0
  0
LINE
  5
ED
  8
DATA
  6
CONTINUOUS
 62
     7
 10
-337.66235204085223
 20
-262.66993060434891
 30
0.0
 11
-336.66235204085223
 21
-262.66993060434891
 31
0.0
  0
ARC
  5
EE
  8
DATA
  6
CONTINUOUS
 62
     7
 10
-334.12482345096771
 20
-110.8512987035225
 30
0.0
 40
4.8384615384617771
 50
136.9971313519053
 51
223.0028686480947
  0
LINE
  5
EF
  8
DATA
  6
CONTINUOUS
 62
     7
 10
-337.66328498942943
 20
-107.55129870352241
 30
0.0
 11
-336.66328498942943
 21
-107.55129870352241
 31
0.0
  0
LINE
  5
F0
  8
DATA
  6
CONTINUOUS
 62
     7
 10
-337.66328498942943
 20
-114.1512987035226
 30
0.0
 11
-336.66328498942943
 21
-114.1512987035226
 31
0.0
  0
ARC
  5
F1
  8
DATA
  6
CONTINUOUS
 62
     7
 10
95.798513683673207
 20
-259.36491003720391
 30
0.0
 40
4.8384615384617176
 50
316.99713135190598
 51
43.002868648094008
  0
LINE
  5
F2
  8
DATA
  6
CONTINUOUS
 62
     7
 10
99.336975222134996
 20
-256.0649100372039
 30
0.0
 11
98.336975222134996
 21
-256.0649100372039
 31
0.0
  0
LINE
  5
F3
  8
DATA
  6
CONTINUOUS
 62
     7
 10
99.336975222134996
 20
-262.66491003720392
 30
0.0
 11
98.336975222134996
 21
-262.66491003720392
 31
0.0
  0
ARC
  5
F4
  8
DATA
  6
CONTINUOUS
 62
     7
 10
95.798447761584242
 20
-110.8587012590766
 30
0.0
 40
4.8384615384617176
 50
316.99713135190598
 51
43.002868648094008
  0
LINE
  5
F5
  8
DATA
  6
CONTINUOUS
 62
     7
 10
99.336909300046045
 20
-107.5587012590766
 30
0.0
 11
98.336909300046045
 21
-107.5587012590766
 31
0.0
  0
LINE
  5
F6
  8
DATA
  6
CONTINUOUS
 62
     7
 10
99.336909300046045
 20
-114.15870125907659
 30
0.0
 11
98.336909300046045
 21
-114.15870125907659
 31
0.0
  0
LINE
  5
F7
  8
DATA
  6
CONTINUOUS
 62
     7
 10
-332.25263525841382
 20
-282.84638818737119
 30
0.0
 11
-329.65263525841368
 21
-282.84638818737119
 31
0.0
  0
LINE
  5
F8
  8
DATA
  6
CONTINUOUS
 62
     7
 10
-333.75263525841382
 20
-281.34638818737108
 30
0.0
 11
-333.75263525841382
 21
-279.84638818737108
 31
0.0
  0
LINE
  5
F9
  8
DATA
  6
CONTINUOUS
 62
     7
 10
-328.15263525841368
 20
-281.34638818737108
 30
0.0
 11
-328.15263525841368
 21
-279.84638818737108
 31
0.0
  0
ARC
  5
FA
  8
DATA
  6
CONTINUOUS
 62
     7
 10
-332.25263525841382
 20
-281.34638818737108
 30
0.0
 40
1.5
 50
180.0
 51
270.0
  0
ARC
  5
FB
  8
DATA
  6
CONTINUOUS
 62
     7
 10
-329.65263525841368
 20
-281.34638818737108
 30
0.0
 40
1.5
 50
270.0
 51
0.0
  0
ARC
  5
FC
  8
DATA
  6
CONTINUOUS
 62
     7
 10
116.7988196181646
 20
68.389205893772541
 30
0.0
 40
3.200000000000002
 50
270.0
 51
90.0
  0
ARC
  5
FD
  8
DATA
  6
CONTINUOUS
 62
     7
 10
112.19881961816471
 20
68.389205893772541
 30
0.0
 40
3.1999999999999882
 50
90.0
 51
270.0
  0
LINE
  5
FE
  8
DATA
  6
CONTINUOUS
 62
     7
 10
116.7988196181646
 20
65.189205893772538
 30
0.0
 11
112.19881961816471
 21
65.189205893772538
 31
0.0
  0
LINE
  5
FF
  8
DATA
  6
CONTINUOUS
 62
     7
 10
116.7988196181646
 20
71.589205893772515
 30
0.0
 11
112.19881961816471
 21
71.589205893772515
 31
0.0
  0
ARC
  5
100
  8
DATA
  6
CONTINUOUS
 62
     7
 10
-348.20118038183449
 20
68.389205893772541
 30
0.0
 40
3.200000000000002
 50
270.0
 51
90.0
  0
ARC
  5
101
  8
DATA
  6
CONTINUOUS
 62
     7
 10
-352.80118038183451
 20
68.389205893772541
 30
0.0
 40
3.1999999999999882
 50
90.0
 51
270.0
  0
LINE
  5
102
  8
DATA
  6
CONTINUOUS
 62
     7
 10
-348.20118038183449
 20
65.189205893772538
 30
0.0
 11
-352.80118038183451
 21
65.189205893772538
 31
0.0
  0
LINE
  5
103
  8
DATA
  6
CONTINUOUS
 62
     7
 10
-348.20118038183449
 20
71.589205893772515
 30
0.0
 11
-352.80118038183451
 21
71.589205893772515
 31
0.0
  0
ARC
  5
104
  8
DATA
  6
CONTINUOUS
 62
     7
 10
116.7988196181646
 20
99.989205893772606
 30
0.0
 40
3.1999999999999882
 50
270.0
 51
90.0
  0
ARC
  5
105
  8
DATA
  6
CONTINUOUS
 62
     7
 10
112.19881961816471
 20
99.989205893772606
 30
0.0
 40
3.1999999999999882
 50
90.0
 51
270.0
  0
LINE
  5
106
  8
DATA
  6
CONTINUOUS
 62
     7
 10
116.7988196181646
 20
103.18920589377259
 30
0.0
 11
112.19881961816471
 21
103.18920589377259
 31
0.0
  0
LINE
  5
107
  8
DATA
  6
CONTINUOUS
 62
     7
 10
116.7988196181646
 20
96.789205893772603
 30
0.0
 11
112.19881961816471
 21
96.789205893772603
 31
0.0
  0
ARC
  5
108
  8
DATA
  6
CONTINUOUS
 62
     7
 10
-348.20118038183449
 20
99.989205893772606
 30
0.0
 40
3.1999999999999882
 50
270.0
 51
90.0
  0
ARC
  5
109
  8
DATA
  6
CONTINUOUS
 62
     7
 10
-352.80118038183451
 20
99.989205893772606
 30
0.0
 40
3.1999999999999882
 50
90.0
 51
270.0
  0
LINE
  5
10A
  8
DATA
  6
CONTINUOUS
 62
     7
 10
-348.20118038183449
 20
103.18920589377259
 30
0.0
 11
-352.80118038183451
 21
103.18920589377259
 31
0.0
  0
LINE
  5
10B
  8
DATA
  6
CONTINUOUS
 62
     7
 10
-348.20118038183449
 20
96.789205893772603
 30
0.0
 11
-352.80118038183451
 21
96.789205893772603
 31
0.0
  0
LINE
  5
10C
  8
DATA
  6
CONTINUOUS
 62
     7
 10
99.658819618164728
 20
106.3892058937726
 30
0.0
 11
99.658819618164728
 21
61.989205893772542
 31
0.0
  0
LINE
  5
10D
  8
DATA
  6
CONTINUOUS
 62
     7
 10
94.358819618164716
 20
67.289205893772547
 30
0.0
 11
-330.04118038183452
 21
67.289205893772547
 31
0.0
  0
LINE
  5
10E
  8
DATA
  6
CONTINUOUS
 62
     7
 10
94.358819618164716
 20
67.289205893772547
 30
0.0
 11
99.658819618164728
 21
61.989205893772542
 31
0.0
  0
LINE
  5
10F
  8
DATA
  6
CONTINUOUS
 62
     7
 10
-330.04118038183458
 20
67.289205893772547
 30
0.0
 11
-335.34118038183448
 21
61.989205893772542
 31
0.0
  0
ARC
  5
110
  8
DATA
  6
CONTINUOUS
 62
     7
 10
97.120358079702953
 20
100.4322170846022
 30
0.0
 40
4.8384615384617176
 50
316.99713135190598
 51
43.002868648094008
  0
LINE
  5
111
  8
DATA
  6
CONTINUOUS
 62
     7
 10
100.6588196181647
 20
97.132217084602203
 30
0.0
 11
99.658819618164728
 21
97.132217084602203
 31
0.0
  0
LINE
  5
112
  8
DATA
  6
CONTINUOUS
 62
     7
 10
100.6588196181647
 20
103.7322170846022
 30
0.0
 11
99.658819618164728
 21
103.7322170846022
 31
0.0
  0
ARC
  5
113
  8
DATA
  6
CONTINUOUS
 62
     7
 10
-332.80271884337282
 20
100.4322170846022
 30
0.0
 40
4.8384615384617176
 50
136.99713135190601
 51
223.00286864809399
  0
LINE
  5
114
  8
DATA
  6
CONTINUOUS
 62
     7
 10
-336.34118038183448
 20
97.132217084602203
 30
0.0
 11
-335.34118038183448
 21
97.132217084602203
 31
0.0
  0
LINE
  5
115
  8
DATA
  6
CONTINUOUS
 62
     7
 10
-336.34118038183448
 20
103.7322170846022
 30
0.0
 11
-335.34118038183448
 21
103.7322170846022
 31
0.0
  0
LINE
  5
116
  8
DATA
  6
CONTINUOUS
 62
     7
 10
223.0569666364668
 20
-395.55892484156482
 30
0.0
 11
223.0569666364668
 21
-439.95892484156468
 31
0.0
  0
CIRCLE
  5
117
  8
DATA
  6
CONTINUOUS
 62
     7
 10
240.0569666364668
 20
-434.95892484156468
 30
0.0
 40
3.3499999999999939
  0
LINE
  5
118
  8
DATA
  6
CONTINUOUS
 62
     7
 10
239.40696663646679
 20
-432.80892484156482
 30
0.0
 11
240.7069666364668
 21
-432.80892484156482
 31
0.0
  0
LINE
  5
119
  8
DATA
  6
CONTINUOUS
 62
     7
 10
239.40696663646679
 20
-437.10892484156471
 30
0.0
 11
240.7069666364668
 21
-437.10892484156471
 31
0.0
  0
LINE
  5
11A
  8
DATA
  6
CONTINUOUS
 62
     7
 10
237.90696663646679
 20
-434.30892484156482
 30
0.0
 11
237.90696663646679
 21
-435.60892484156471
 31
0.0
  0
LINE
  5
11B
  8
DATA
  6
CONTINUOUS
 62
     7
 10
242.2069666364668
 20
-434.30892484156482
 30
0.0
 11
242.2069666364668
 21
-435.60892484156471
 31
0.0
  0
LINE
  5
11C
  8
DATA
  6
CONTINUOUS
 62
     7
 10
239.40696663646679
 20
-432.80892484156482
 30
0.0
 11
239.40696663646679
 21
-434.01024154350188
 31
0.0
  0
LINE
  5
11D
  8
DATA
  6
CONTINUOUS
 62
     7
 10
240.7069666364668
 20
-432.80892484156482
 30
0.0
 11
240.7069666364668
 21
-434.01024154350188
 31
0.0
  0
LINE
  5
11E
  8
DATA
  6
CONTINUOUS
 62
     7
 10
242.2069666364668
 20
-434.30892484156482
 30
0.0
 11
241.0056499345209
 21
-434.30892484156482
 31
0.0
  0
LINE
  5
11F
  8
DATA
  6
CONTINUOUS
 62
     7
 10
242.2069666364668
 20
-435.60892484156471
 30
0.0
 11
241.0056499345209
 21
-435.60892484156471
 31
0.0
  0
LINE
  5
120
  8
DATA
  6
CONTINUOUS
 62
     7
 10
237.90696663646679
 20
-434.30892484156482
 30
0.0
 11
239.10828333841269
 21
-434.30892484156482
 31
0.0
  0
LINE
  5
121
  8
DATA
  6
CONTINUOUS
 62
     7
 10
240.7069666364668
 20
-437.10892484156471
 30
0.0
 11
240.7069666364668
 21
-435.9076081396276
 31
0.0
  0
LINE
  5
122
  8
DATA
  6
CONTINUOUS
 62
     7
 10
239.40696663646679
 20
-437.10892484156471
 30
0.0
 11
239.40696663646679
 21
-435.9076081396276
 31
0.0
  0
LINE
  5
123
  8
DATA
  6
CONTINUOUS
 62
     7
 10
237.90696663646679
 20
-435.60892484156471
 30
0.0
 11
239.10828333841269
 21
-435.60892484156471
 31
0.0
  0
ARC
  5
124
  8
DATA
  6
CONTINUOUS
 62
     7
 10
240.0569666364668
 20
-434.95892484156468
 30
0.0
 40
1.15000000000292
 50
124.4173887100967
 51
145.5826112896566
  0
ARC
  5
125
  8
DATA
  6
CONTINUOUS
 62
     7
 10
240.0569666364668
 20
-434.95892484156468
 30
0.0
 40
1.1500000000101169
 50
34.417388710342003
 51
55.582611289904293
  0
ARC
  5
126
  8
DATA
  6
CONTINUOUS
 62
     7
 10
240.0569666364668
 20
-434.95892484156468
 30
0.0
 40
1.15000000000292
 50
304.41738871009687
 51
325.58261128965978
  0
ARC
  5
127
  8
DATA
  6
CONTINUOUS
 62
     7
 10
240.0569666364668
 20
-434.95892484156468
 30
0.0
 40
1.1500000000101409
 50
214.41738871034121
 51
235.5826112899054
  0
TEXT
  5
128
  8
DATA
 62
     7
 10
-358.07060586944129
 20
-424.34460996955391
 30
0.0
 40
1.923828125
  1
PROFESSIONAL PRODUCTS  
 41
0.8
 11
-358.07060586944129
 21
-422.42078184455391
 31
0.0
 73
     3
  0
TEXT
  5
129
  8
DATA
 62
     7
 10
111.34692729188851
 20
-412.37383912404403
 30
0.0
 40
3.462890625
  1
480P
 41
0.8
 11
111.34692729188851
 21
-408.91094849904403
 31
0.0
 73
     3
  0
TEXT
  5
12A
  8
DATA
 62
     7
 10
77.766593171111452
 20
-417.7694246316002
 30
0.0
 40
3.462890625
  1
         DRIVE RACK
 41
0.8
 11
77.766593171111452
 21
-414.3065340066002
 31
0.0
 73
     3
  0
CIRCLE
  5
12B
  8
DATA
  6
CONTINUOUS
 62
     7
 10
-85.422572677959508
 20
92.485848025041946
 30
0.0
 40
2.599999999999965
  0
CIRCLE
  5
12C
  8
DATA
  6
CONTINUOUS
 62
     7
 10
-85.422572677959508
 20
92.485848025041946
 30
0.0
 40
1.649999999999977
  0
CIRCLE
  5
12D
  8
DATA
  6
CONTINUOUS
 62
     7
 10
-329.8684518226342
 20
-430.12746001089658
 30
0.0
 40
2.8000000000000109
  0
POLYLINE
  5
12E
  8
DATA
  6
CONTINUOUS
 62
     7
 66
     1
 10
0.0
 20
0.0
 30
0.0
 70
     1
  0
VERTEX
  5
8B1
  8
DATA
  6
CONTINUOUS
 62
     7
 10
-328.46845182263422
 20
-430.12746001089658
 30
0.0
  0
VERTEX
  5
8B2
  8
DATA
  6
CONTINUOUS
 62
     7
 10
-329.1684518226341
 20
-431.33989557619481
 30
0.0
  0
VERTEX
  5
8B3
  8
DATA
  6
CONTINUOUS
 62
     7
 10
-330.56845182263419
 20
-431.33989557619481
 30
0.0
  0
VERTEX
  5
8B4
  8
DATA
  6
CONTINUOUS
 62
     7
 10
-331.26845182263418
 20
-430.12746001089658
 30
0.0
  0
VERTEX
  5
8B5
  8
DATA
  6
CONTINUOUS
 62
     7
 10
-330.5684518226343
 20
-428.91502444559831
 30
0.0
  0
VERTEX
  5
8B6
  8
DATA
  6
CONTINUOUS
 62
     7
 10
-329.1684518226341
 20
-428.91502444559831
 30
0.0
  0
SEQEND
  5
8B7
  8
DATA
  6
CONTINUOUS
 62
     7
  0
TEXT
  5
136
  8
DATA
 62
     7
 10
233.5088757718411
 20
-555.7321086492808
 30
0.0
 40
12.21630859375
  1
dbx
 41
0.8
 11
233.5088757718411
 21
-543.5158000555308
 31
0.0
 73
     3
  0
POLYLINE
  5
137
  8
DATA
  6
CONTINUOUS
 62
     7
 66
     1
 10
0.0
 20
0.0
 30
0.0
 70
     1
  0
VERTEX
  5
8B8
  8
DATA
  6
CONTINUOUS
 62
     7
 10
-360.04129757352678
 20
-394.99900602370019
 30
0.0
  0
VERTEX
  5
8B9
  8
DATA
  6
CONTINUOUS
 62
     7
 10
122.9587024264731
 20
-394.99900602370019
 30
0.0
  0
VERTEX
  5
8BA
  8
DATA
  6
CONTINUOUS
 62
     7
 10
122.9587024264731
 20
-439.99900602370008
 30
0.0
  0
VERTEX
  5
8BB
  8
DATA
  6
CONTINUOUS
 62
     7
 10
-360.04129757352678
 20
-439.99900602370008
 30
0.0
  0
SEQEND
  5
8BC
  8
DATA
  6
CONTINUOUS
 62
     7
  0
POLYLINE
  5
13D
  8
DATA
  6
CONTINUOUS
 62
     7
 66
     1
 10
0.0
 20
0.0
 30
0.0
 70
     1
  0
VERTEX
  5
8BD
  8
DATA
  6
CONTINUOUS
 62
     7
 10
-360.00118038183518
 20
106.98920589377261
 30
0.0
  0
VERTEX
  5
8BE
  8
DATA
  6
CONTINUOUS
 62
     7
 10
122.9988196181647
 20
106.98920589377261
 30
0.0
  0
VERTEX
  5
8BF
  8
DATA
  6
CONTINUOUS
 62
     7
 10
122.9988196181647
 20
61.989205893772528
 30
0.0
  0
VERTEX
  5
8C0
  8
DATA
  6
CONTINUOUS
 62
     7
 10
-360.00118038183518
 20
61.989205893772528
 30
0.0
  0
SEQEND
  5
8C1
  8
DATA
  6
CONTINUOUS
 62
     7
  0
LINE
  5
143
  8
DATA
  6
CONTINUOUS
 62
     7
 10
99.658819618164728
 20
106.3892058937726
 30
0.0
 11
99.658819618164728
 21
106.98920589377261
 31
0.0
  0
CIRCLE
  5
144
  8
DATA
  6
CONTINUOUS
 62
     7
 10
388.5605601006493
 20
-434.9967284918323
 30
0.0
 40
3.3500000000000218
  0
LINE
  5
145
  8
DATA
  6
CONTINUOUS
 62
     7
 10
387.91056010064932
 20
-432.84672849183249
 30
0.0
 11
389.21056010064927
 21
-432.84672849183249
 31
0.0
  0
LINE
  5
146
  8
DATA
  6
CONTINUOUS
 62
     7
 10
387.91056010064932
 20
-437.14672849183228
 30
0.0
 11
389.21056010064927
 21
-437.14672849183228
 31
0.0
  0
LINE
  5
147
  8
DATA
  6
CONTINUOUS
 62
     7
 10
386.41056010064932
 20
-434.34672849183238
 30
0.0
 11
386.41056010064932
 21
-435.64672849183228
 31
0.0
  0
LINE
  5
148
  8
DATA
  6
CONTINUOUS
 62
     7
 10
390.71056010064927
 20
-434.34672849183238
 30
0.0
 11
390.71056010064927
 21
-435.64672849183228
 31
0.0
  0
LINE
  5
149
  8
DATA
  6
CONTINUOUS
 62
     7
 10
387.91056010064932
 20
-432.84672849183249
 30
0.0
 11
387.91056010064932
 21
-434.04804519376961
 31
0.0
  0
LINE
  5
14A
  8
DATA
  6
CONTINUOUS
 62
     7
 10
389.21056010064927
 20
-432.84672849183249
 30
0.0
 11
389.21056010064927
 21
-434.04804519376961
 31
0.0
  0
LINE
  5
14B
  8
DATA
  6
CONTINUOUS
 62
     7
 10
390.71056010064927
 20
-434.34672849183238
 30
0.0
 11
389.50924339870352
 21
-434.34672849183238
 31
0.0
  0
LINE
  5
14C
  8
DATA
  6
CONTINUOUS
 62
     7
 10
390.71056010064927
 20
-435.64672849183228
 30
0.0
 11
389.50924339870352
 21
-435.64672849183228
 31
0.0
  0
LINE
  5
14D
  8
DATA
  6
CONTINUOUS
 62
     7
 10
386.41056010064932
 20
-434.34672849183238
 30
0.0
 11
387.61187680259542
 21
-434.34672849183238
 31
0.0
  0
LINE
  5
14E
  8
DATA
  6
CONTINUOUS
 62
     7
 10
389.21056010064927
 20
-437.14672849183228
 30
0.0
 11
389.21056010064927
 21
-435.9454117898951
 31
0.0
  0
LINE
  5
14F
  8
DATA
  6
CONTINUOUS
 62
     7
 10
387.91056010064932
 20
-437.14672849183228
 30
0.0
 11
387.91056010064932
 21
-435.9454117898951
 31
0.0
  0
LINE
  5
150
  8
DATA
  6
CONTINUOUS
 62
     7
 10
386.41056010064932
 20
-435.64672849183228
 30
0.0
 11
387.61187680259542
 21
-435.64672849183228
 31
0.0
  0
ARC
  5
151
  8
DATA
  6
CONTINUOUS
 62
     7
 10
388.5605601006493
 20
-434.9967284918323
 30
0.0
 40
1.150000000002888
 50
124.4173887100944
 51
145.58261128965501
  0
ARC
  5
152
  8
DATA
  6
CONTINUOUS
 62
     7
 10
388.5605601006493
 20
-434.9967284918323
 30
0.0
 40
1.1500000000101409
 50
34.4173887103412
 51
55.582611289903127
  0
ARC
  5
153
  8
DATA
  6
CONTINUOUS
 62
     7
 10
388.5605601006493
 20
-434.9967284918323
 30
0.0
 40
1.150000000002952
 50
304.41738871009909
 51
325.58261128966058
  0
ARC
  5
154
  8
DATA
  6
CONTINUOUS
 62
     7
 10
388.5605601006493
 20
-434.9967284918323
 30
0.0
 40
1.1500000000101409
 50
214.41738871034121
 51
235.5826112899054
  0
POLYLINE
  5
155
  8
DATA
  6
CONTINUOUS
 62
     7
 66
     1
 10
0.0
 20
0.0
 30
0.0
 70
   128
  0
VERTEX
  5
8C2
  8
DATA
  6
CONTINUOUS
 62
     7
 10
64.402407310379203
 20
102.2626729120873
 30
0.0
  0
VERTEX
  5
8C3
  8
DATA
  6
CONTINUOUS
 62
     7
 10
64.383559880185601
 20
102.243825481893
 30
0.0
  0
VERTEX
  5
8C4
  8
DATA
  6
CONTINUOUS
 62
     7
 10
64.225454734184012
 20
102.0638767972839
 30
0.0
  0
VERTEX
  5
8C5
  8
DATA
  6
CONTINUOUS
 62
     7
 10
64.087046768052303
 20
101.8739180800375
 30
0.0
  0
VERTEX
  5
8C6
  8
DATA
  6
CONTINUOUS
 62
     7
 10
63.96833598179046
 20
101.673949330154
 30
0.0
  0
VERTEX
  5
8C7
  8
DATA
  6
CONTINUOUS
 62
     7
 10
63.869322375398482
 20
101.4639705476332
 30
0.0
  0
VERTEX
  5
8C8
  8
DATA
  6
CONTINUOUS
 62
     7
 10
63.790005948876392
 20
101.24398173247531
 30
0.0
  0
VERTEX
  5
8C9
  8
DATA
  6
CONTINUOUS
 62
     7
 10
63.730386702224152
 20
101.0139828846801
 30
0.0
  0
VERTEX
  5
8CA
  8
DATA
  6
CONTINUOUS
 62
     7
 10
63.690464635441778
 20
100.7739740042478
 30
0.0
  0
VERTEX
  5
8CB
  8
DATA
  6
CONTINUOUS
 62
     7
 10
63.670239748529298
 20
100.52395509117819
 30
0.0
  0
VERTEX
  5
8CC
  8
DATA
  6
CONTINUOUS
 62
     7
 10
63.670239748529298
 20
100.52395509117819
 30
0.0
  0
VERTEX
  5
8CD
  8
DATA
  6
CONTINUOUS
 62
     7
 10
63.670239748529298
 20
100.4951965123475
 30
0.0
  0
VERTEX
  5
8CE
  8
DATA
  6
CONTINUOUS
 62
     7
 10
63.670239748529298
 20
100.4951965123475
 30
0.0
  0
VERTEX
  5
8CF
  8
DATA
  6
CONTINUOUS
 62
     7
 10
63.670242018936712
 20
100.3398552346641
 30
0.0
  0
VERTEX
  5
8D0
  8
DATA
  6
CONTINUOUS
 62
     7
 10
63.670244929325492
 20
100.14072643081229
 30
0.0
  0
VERTEX
  5
8D1
  8
DATA
  6
CONTINUOUS
 62
     7
 10
63.670248479695651
 20
99.897810100792157
 30
0.0
  0
VERTEX
  5
8D2
  8
DATA
  6
CONTINUOUS
 62
     7
 10
63.670252670047198
 20
99.611106244603562
 30
0.0
  0
VERTEX
  5
8D3
  8
DATA
  6
CONTINUOUS
 62
     7
 10
63.670257500380117
 20
99.280614862246566
 30
0.0
  0
VERTEX
  5
8D4
  8
DATA
  6
CONTINUOUS
 62
     7
 10
63.670262970694417
 20
98.906335953721197
 30
0.0
  0
VERTEX
  5
8D5
  8
DATA
  6
CONTINUOUS
 62
     7
 10
63.670269080990103
 20
98.488269519027398
 30
0.0
  0
VERTEX
  5
8D6
  8
DATA
  6
CONTINUOUS
 62
     7
 10
63.670275831267162
 20
98.026415558165226
 30
0.0
  0
VERTEX
  5
8D7
  8
DATA
  6
CONTINUOUS
 62
     7
 10
63.670282932594311
 20
97.540542750760423
 30
0.0
  0
VERTEX
  5
8D8
  8
DATA
  6
CONTINUOUS
 62
     7
 10
63.670290096040262
 20
97.050419776438801
 30
0.0
  0
VERTEX
  5
8D9
  8
DATA
  6
CONTINUOUS
 62
     7
 10
63.670297321604998
 20
96.556046635200303
 30
0.0
  0
VERTEX
  5
8DA
  8
DATA
  6
CONTINUOUS
 62
     7
 10
63.67030460928855
 20
96.057423327045058
 30
0.0
  0
VERTEX
  5
8DB
  8
DATA
  6
CONTINUOUS
 62
     7
 10
63.670311959090903
 20
95.554549851972965
 30
0.0
  0
VERTEX
  5
8DC
  8
DATA
  6
CONTINUOUS
 62
     7
 10
63.670319371012042
 20
95.04742620998401
 30
0.0
  0
VERTEX
  5
8DD
  8
DATA
  6
CONTINUOUS
 62
     7
 10
63.670326845051967
 20
94.536052401078265
 30
0.0
  0
VERTEX
  5
8DE
  8
DATA
  6
CONTINUOUS
 62
     7
 10
63.670334381210722
 20
94.020428425255673
 30
0.0
  0
VERTEX
  5
8DF
  8
DATA
  6
CONTINUOUS
 62
     7
 10
63.670342016586609
 20
93.498016011768755
 30
0.0
  0
VERTEX
  5
8E0
  8
DATA
  6
CONTINUOUS
 62
     7
 10
63.670349788278031
 20
92.966276889869974
 30
0.0
  0
VERTEX
  5
8E1
  8
DATA
  6
CONTINUOUS
 62
     7
 10
63.670357696284967
 20
92.425211059559388
 30
0.0
  0
VERTEX
  5
8E2
  8
DATA
  6
CONTINUOUS
 62
     7
 10
63.670365740607387
 20
91.874818520836868
 30
0.0
  0
VERTEX
  5
8E3
  8
DATA
  6
CONTINUOUS
 62
     7
 10
63.670373921245357
 20
91.315099273702543
 30
0.0
  0
VERTEX
  5
8E4
  8
DATA
  6
CONTINUOUS
 62
     7
 10
63.670382238198819
 20
90.746053318156342
 30
0.0
  0
VERTEX
  5
8E5
  8
DATA
  6
CONTINUOUS
 62
     7
 10
63.670390691467809
 20
90.167680654198307
 30
0.0
  0
VERTEX
  5
8E6
  8
DATA
  6
CONTINUOUS
 62
     7
 10
63.670399281052312
 20
89.579981281828381
 30
0.0
  0
VERTEX
  5
8E7
  8
DATA
  6
CONTINUOUS
 62
     7
 10
63.670407952419303
 20
88.986686352062307
 30
0.0
  0
VERTEX
  5
8E8
  8
DATA
  6
CONTINUOUS
 62
     7
 10
63.670416651035708
 20
88.391527015915585
 30
0.0
  0
VERTEX
  5
8E9
  8
DATA
  6
CONTINUOUS
 62
     7
 10
63.670425376901598
 20
87.794503273388344
 30
0.0
  0
VERTEX
  5
8EA
  8
DATA
  6
CONTINUOUS
 62
     7
 10
63.670434130016922
 20
87.195615124480497
 30
0.0
  0
VERTEX
  5
8EB
  8
DATA
  6
CONTINUOUS
 62
     7
 10
63.670442910381688
 20
86.594862569192074
 30
0.0
  0
VERTEX
  5
8EC
  8
DATA
  6
CONTINUOUS
 62
     7
 10
63.670451717995903
 20
85.992245607523088
 30
0.0
  0
VERTEX
  5
8ED
  8
DATA
  6
CONTINUOUS
 62
     7
 10
63.670460552859574
 20
85.38776423947354
 30
0.0
  0
VERTEX
  5
8EE
  8
DATA
  6
CONTINUOUS
 62
     7
 10
63.670469414972672
 20
84.781418465043444
 30
0.0
  0
VERTEX
  5
8EF
  8
DATA
  6
CONTINUOUS
 62
     7
 10
63.670478249829678
 20
84.176937553207324
 30
0.0
  0
VERTEX
  5
8F0
  8
DATA
  6
CONTINUOUS
 62
     7
 10
63.670487002925071
 20
83.578050772939775
 30
0.0
  0
VERTEX
  5
8F1
  8
DATA
  6
CONTINUOUS
 62
     7
 10
63.670495674258788
 20
82.984758124240813
 30
0.0
  0
VERTEX
  5
8F2
  8
DATA
  6
CONTINUOUS
 62
     7
 10
63.670504263830871
 20
82.39705960711045
 30
0.0
  0
VERTEX
  5
8F3
  8
DATA
  6
CONTINUOUS
 62
     7
 10
63.670512771641313
 20
81.814955221548701
 30
0.0
  0
VERTEX
  5
8F4
  8
DATA
  6
CONTINUOUS
 62
     7
 10
63.670521197690107
 20
81.238444967555495
 30
0.0
  0
VERTEX
  5
8F5
  8
DATA
  6
CONTINUOUS
 62
     7
 10
63.670529541977281
 20
80.667528845130903
 30
0.0
  0
VERTEX
  5
8F6
  8
DATA
  6
CONTINUOUS
 62
     7
 10
63.670537804502793
 20
80.102206854274897
 30
0.0
  0
VERTEX
  5
8F7
  8
DATA
  6
CONTINUOUS
 62
     7
 10
63.670545930759651
 20
79.546208365066803
 30
0.0
  0
VERTEX
  5
8F8
  8
DATA
  6
CONTINUOUS
 62
     7
 10
63.670553866240809
 20
79.003262747585964
 30
0.0
  0
VERTEX
  5
8F9
  8
DATA
  6
CONTINUOUS
 62
     7
 10
63.670561610946322
 20
78.473370001832421
 30
0.0
  0
VERTEX
  5
8FA
  8
DATA
  6
CONTINUOUS
 62
     7
 10
63.67056916487612
 20
77.956530127806104
 30
0.0
  0
VERTEX
  5
8FB
  8
DATA
  6
CONTINUOUS
 62
     7
 10
63.670576528030239
 20
77.452743125507055
 30
0.0
  0
VERTEX
  5
8FC
  8
DATA
  6
CONTINUOUS
 62
     7
 10
63.670583700408677
 20
76.962008994935289
 30
0.0
  0
VERTEX
  5
8FD
  8
DATA
  6
CONTINUOUS
 62
     7
 10
63.670590682011429
 20
76.484327736090748
 30
0.0
  0
VERTEX
  5
8FE
  8
DATA
  6
CONTINUOUS
 62
     7
 10
63.670597472838502
 20
76.019699348973461
 30
0.0
  0
VERTEX
  5
8FF
  8
DATA
  6
CONTINUOUS
 62
     7
 10
63.670604018301411
 20
75.571858777244302
 30
0.0
  0
VERTEX
  5
900
  8
DATA
  6
CONTINUOUS
 62
     7
 10
63.670610263811668
 20
75.144540964564143
 30
0.0
  0
VERTEX
  5
901
  8
DATA
  6
CONTINUOUS
 62
     7
 10
63.670616209369292
 20
74.737745910933
 30
0.0
  0
VERTEX
  5
902
  8
DATA
  6
CONTINUOUS
 62
     7
 10
63.670621854974272
 20
74.35147361635083
 30
0.0
  0
VERTEX
  5
903
  8
DATA
  6
CONTINUOUS
 62
     7
 10
63.670627200626619
 20
73.985724080817604
 30
0.0
  0
VERTEX
  5
904
  8
DATA
  6
CONTINUOUS
 62
     7
 10
63.670632246326321
 20
73.640497304333451
 30
0.0
  0
VERTEX
  5
905
  8
DATA
  6
CONTINUOUS
 62
     7
 10
63.670636992073391
 20
73.315793286898256
 30
0.0
  0
VERTEX
  5
906
  8
DATA
  6
CONTINUOUS
 62
     7
 10
63.670641437867793
 20
73.011612028512033
 30
0.0
  0
VERTEX
  5
907
  8
DATA
  6
CONTINUOUS
 62
     7
 10
63.670645543051052
 20
72.730735387008835
 30
0.0
  0
VERTEX
  5
908
  8
DATA
  6
CONTINUOUS
 62
     7
 10
63.670649266964638
 20
72.475945220222698
 30
0.0
  0
VERTEX
  5
909
  8
DATA
  6
CONTINUOUS
 62
     7
 10
63.670652609608538
 20
72.247241528153623
 30
0.0
  0
VERTEX
  5
90A
  8
DATA
  6
CONTINUOUS
 62
     7
 10
63.670655570982753
 20
72.044624310801566
 30
0.0
  0
VERTEX
  5
90B
  8
DATA
  6
CONTINUOUS
 62
     7
 10
63.670658151087281
 20
71.868093568166557
 30
0.0
  0
VERTEX
  5
90C
  8
DATA
  6
CONTINUOUS
 62
     7
 10
63.670660349922123
 20
71.717649300248596
 30
0.0
  0
VERTEX
  5
90D
  8
DATA
  6
CONTINUOUS
 62
     7
 10
63.670662167487279
 20
71.593291507047667
 30
0.0
  0
VERTEX
  5
90E
  8
DATA
  6
CONTINUOUS
 62
     7
 10
63.670663603782771
 20
71.495020188563814
 30
0.0
  0
VERTEX
  5
90F
  8
DATA
  6
CONTINUOUS
 62
     7
 10
63.670663603782771
 20
71.495020188563814
 30
0.0
  0
VERTEX
  5
910
  8
DATA
  6
CONTINUOUS
 62
     7
 10
63.670663603782771
 20
71.495020188563814
 30
0.0
  0
VERTEX
  5
911
  8
DATA
  6
CONTINUOUS
 62
     7
 10
63.670667135909177
 20
71.437495966648896
 30
0.0
  0
VERTEX
  5
912
  8
DATA
  6
CONTINUOUS
 62
     7
 10
63.705288263574403
 20
71.1380427882535
 30
0.0
  0
VERTEX
  5
913
  8
DATA
  6
CONTINUOUS
 62
     7
 10
63.759978715190002
 20
70.859265463461739
 30
0.0
  0
VERTEX
  5
914
  8
DATA
  6
CONTINUOUS
 62
     7
 10
63.834738490755988
 20
70.601163992273555
 30
0.0
  0
VERTEX
  5
915
  8
DATA
  6
CONTINUOUS
 62
     7
 10
63.929567590272342
 20
70.363738374689007
 30
0.0
  0
VERTEX
  5
916
  8
DATA
  6
CONTINUOUS
 62
     7
 10
64.044466013739083
 20
70.146988610708064
 30
0.0
  0
VERTEX
  5
917
  8
DATA
  6
CONTINUOUS
 62
     7
 10
64.17943376115619
 20
69.950914700330742
 30
0.0
  0
VERTEX
  5
918
  8
DATA
  6
CONTINUOUS
 62
     7
 10
64.334470832523692
 20
69.77551664355704
 30
0.0
  0
VERTEX
  5
919
  8
DATA
  6
CONTINUOUS
 62
     7
 10
64.509577227841561
 20
69.620794440386931
 30
0.0
  0
VERTEX
  5
91A
  8
DATA
  6
CONTINUOUS
 62
     7
 10
64.696629722172418
 20
69.484684714432461
 30
0.0
  0
VERTEX
  5
91B
  8
DATA
  6
CONTINUOUS
 62
     7
 10
64.887505090578856
 20
69.365124089305638
 30
0.0
  0
VERTEX
  5
91C
  8
DATA
  6
CONTINUOUS
 62
     7
 10
65.082203333060889
 20
69.262112565006476
 30
0.0
  0
VERTEX
  5
91D
  8
DATA
  6
CONTINUOUS
 62
     7
 10
65.280724449618504
 20
69.175650141534931
 30
0.0
  0
VERTEX
  5
91E
  8
DATA
  6
CONTINUOUS
 62
     7
 10
65.483068440251714
 20
69.105736818891046
 30
0.0
  0
VERTEX
  5
91F
  8
DATA
  6
CONTINUOUS
 62
     7
 10
65.689235304960491
 20
69.052372597074779
 30
0.0
  0
VERTEX
  5
920
  8
DATA
  6
CONTINUOUS
 62
     7
 10
65.899225043744877
 20
69.015557476086201
 30
0.0
  0
VERTEX
  5
921
  8
DATA
  6
CONTINUOUS
 62
     7
 10
66.113037656604817
 20
68.995291455925241
 30
0.0
  0
VERTEX
  5
922
  8
DATA
  6
CONTINUOUS
 62
     7
 10
66.113037656604817
 20
68.995291455925241
 30
0.0
  0
VERTEX
  5
923
  8
DATA
  6
CONTINUOUS
 62
     7
 10
66.170561878519038
 20
68.995291455925241
 30
0.0
  0
VERTEX
  5
924
  8
DATA
  6
CONTINUOUS
 62
     7
 10
66.170561878519038
 20
68.995291455925241
 30
0.0
  0
VERTEX
  5
925
  8
DATA
  6
CONTINUOUS
 62
     7
 10
66.256861780128546
 20
68.995292626430853
 30
0.0
  0
VERTEX
  5
926
  8
DATA
  6
CONTINUOUS
 62
     7
 10
66.365458581515469
 20
68.995294099354396
 30
0.0
  0
VERTEX
  5
927
  8
DATA
  6
CONTINUOUS
 62
     7
 10
66.49635228267968
 20
68.995295874695898
 30
0.0
  0
VERTEX
  5
928
  8
DATA
  6
CONTINUOUS
 62
     7
 10
66.64954288362128
 20
68.995297952455303
 30
0.0
  0
VERTEX
  5
929
  8
DATA
  6
CONTINUOUS
 62
     7
 10
66.825030384340224
 20
68.995300332632652
 30
0.0
  0
VERTEX
  5
92A
  8
DATA
  6
CONTINUOUS
 62
     7
 10
67.022814784836513
 20
68.995303015227933
 30
0.0
  0
VERTEX
  5
92B
  8
DATA
  6
CONTINUOUS
 62
     7
 10
67.242896085110161
 20
68.995306000241172
 30
0.0
  0
VERTEX
  5
92C
  8
DATA
  6
CONTINUOUS
 62
     7
 10
67.485274285161154
 20
68.995309287672342
 30
0.0
  0
VERTEX
  5
92D
  8
DATA
  6
CONTINUOUS
 62
     7
 10
67.747637764839794
 20
68.995312846168446
 30
0.0
  0
VERTEX
  5
92E
  8
DATA
  6
CONTINUOUS
 62
     7
 10
68.027674903996356
 20
68.995316644376445
 30
0.0
  0
VERTEX
  5
92F
  8
DATA
  6
CONTINUOUS
 62
     7
 10
68.325385702630882
 20
68.995320682296409
 30
0.0
  0
VERTEX
  5
930
  8
DATA
  6
CONTINUOUS
 62
     7
 10
68.640770160743315
 20
68.995324959928254
 30
0.0
  0
VERTEX
  5
931
  8
DATA
  6
CONTINUOUS
 62
     7
 10
68.973828278333698
 20
68.995329477272065
 30
0.0
  0
VERTEX
  5
932
  8
DATA
  6
CONTINUOUS
 62
     7
 10
69.324560055402017
 20
68.9953342343278
 30
0.0
  0
VERTEX
  5
933
  8
DATA
  6
CONTINUOUS
 62
     7
 10
69.692965491948272
 20
68.995339231095471
 30
0.0
  0
VERTEX
  5
934
  8
DATA
  6
CONTINUOUS
 62
     7
 10
70.079044587972447
 20
68.995344467575066
 30
0.0
  0
VERTEX
  5
935
  8
DATA
  6
CONTINUOUS
 62
     7
 10
70.479586912499315
 20
68.995349900222777
 30
0.0
  0
VERTEX
  5
936
  8
DATA
  6
CONTINUOUS
 62
     7
 10
70.891382034553658
 20
68.99535548549477
 30
0.0
  0
VERTEX
  5
937
  8
DATA
  6
CONTINUOUS
 62
     7
 10
71.31442995413542
 20
68.995361223391043
 30
0.0
  0
VERTEX
  5
938
  8
DATA
  6
CONTINUOUS
 62
     7
 10
71.748730671244644
 20
68.995367113911612
 30
0.0
  0
VERTEX
  5
939
  8
DATA
  6
CONTINUOUS
 62
     7
 10
72.19428418588133
 20
68.995373157056477
 30
0.0
  0
VERTEX
  5
93A
  8
DATA
  6
CONTINUOUS
 62
     7
 10
72.651090498045434
 20
68.995379352825637
 30
0.0
  0
VERTEX
  5
93B
  8
DATA
  6
CONTINUOUS
 62
     7
 10
73.119149607737043
 20
68.995385701219078
 30
0.0
  0
VERTEX
  5
93C
  8
DATA
  6
CONTINUOUS
 62
     7
 10
73.598461514956043
 20
68.9953922022368
 30
0.0
  0
VERTEX
  5
93D
  8
DATA
  6
CONTINUOUS
 62
     7
 10
74.085810761326371
 20
68.995398812266785
 30
0.0
  0
VERTEX
  5
93E
  8
DATA
  6
CONTINUOUS
 62
     7
 10
74.577981888471811
 20
68.995405487697099
 30
0.0
  0
VERTEX
  5
93F
  8
DATA
  6
CONTINUOUS
 62
     7
 10
75.074974896392376
 20
68.995412228527613
 30
0.0
  0
VERTEX
  5
940
  8
DATA
  6
CONTINUOUS
 62
     7
 10
75.576789785088096
 20
68.995419034758413
 30
0.0
  0
VERTEX
  5
941
  8
DATA
  6
CONTINUOUS
 62
     7
 10
76.08342655455894
 20
68.995425906389499
 30
0.0
  0
VERTEX
  5
942
  8
DATA
  6
CONTINUOUS
 62
     7
 10
76.59488520480491
 20
68.995432843420815
 30
0.0
  0
VERTEX
  5
943
  8
DATA
  6
CONTINUOUS
 62
     7
 10
77.111165735825992
 20
68.995439845852417
 30
0.0
  0
VERTEX
  5
944
  8
DATA
  6
CONTINUOUS
 62
     7
 10
77.632268147622227
 20
68.995446913684248
 30
0.0
  0
VERTEX
  5
945
  8
DATA
  6
CONTINUOUS
 62
     7
 10
78.154979174911176
 20
68.995454003334146
 30
0.0
  0
VERTEX
  5
946
  8
DATA
  6
CONTINUOUS
 62
     7
 10
78.676085552410427
 20
68.995461071219822
 30
0.0
  0
VERTEX
  5
947
  8
DATA
  6
CONTINUOUS
 62
     7
 10
79.195587280120023
 20
68.995468117341261
 30
0.0
  0
VERTEX
  5
948
  8
DATA
  6
CONTINUOUS
 62
     7
 10
79.713484358039892
 20
68.995475141698492
 30
0.0
  0
VERTEX
  5
949
  8
DATA
  6
CONTINUOUS
 62
     7
 10
80.229776786170078
 20
68.995482144291515
 30
0.0
  0
VERTEX
  5
94A
  8
DATA
  6
CONTINUOUS
 62
     7
 10
80.744464564510594
 20
68.995489125120329
 30
0.0
  0
VERTEX
  5
94B
  8
DATA
  6
CONTINUOUS
 62
     7
 10
81.257547693061412
 20
68.995496084184936
 30
0.0
  0
VERTEX
  5
94C
  8
DATA
  6
CONTINUOUS
 62
     7
 10
81.769026171822532
 20
68.995503021485334
 30
0.0
  0
VERTEX
  5
94D
  8
DATA
  6
CONTINUOUS
 62
     7
 10
82.275677574952766
 20
68.995509893314974
 30
0.0
  0
VERTEX
  5
94E
  8
DATA
  6
CONTINUOUS
 62
     7
 10
82.774279476611014
 20
68.995516655967378
 30
0.0
  0
VERTEX
  5
94F
  8
DATA
  6
CONTINUOUS
 62
     7
 10
83.264831876797203
 20
68.99552330944249
 30
0.0
  0
VERTEX
  5
950
  8
DATA
  6
CONTINUOUS
 62
     7
 10
83.747334775511376
 20
68.995529853740337
 30
0.0
  0
VERTEX
  5
951
  8
DATA
  6
CONTINUOUS
 62
     7
 10
84.221788172753435
 20
68.995536288860905
 30
0.0
  0
VERTEX
  5
952
  8
DATA
  6
CONTINUOUS
 62
     7
 10
84.688192068523506
 20
68.995542614804222
 30
0.0
  0
VERTEX
  5
953
  8
DATA
  6
CONTINUOUS
 62
     7
 10
85.146546462821547
 20
68.995548831570275
 30
0.0
  0
VERTEX
  5
954
  8
DATA
  6
CONTINUOUS
 62
     7
 10
85.596851355647502
 20
68.995554939159035
 30
0.0
  0
VERTEX
  5
955
  8
DATA
  6
CONTINUOUS
 62
     7
 10
86.041456335478301
 20
68.995560969438586
 30
0.0
  0
VERTEX
  5
956
  8
DATA
  6
CONTINUOUS
 62
     7
 10
86.482710990790807
 20
68.995566954276939
 30
0.0
  0
VERTEX
  5
957
  8
DATA
  6
CONTINUOUS
 62
     7
 10
86.920615321584933
 20
68.995572893674051
 30
0.0
  0
VERTEX
  5
958
  8
DATA
  6
CONTINUOUS
 62
     7
 10
87.355169327860736
 20
68.995578787629981
 30
0.0
  0
VERTEX
  5
959
  8
DATA
  6
CONTINUOUS
 62
     7
 10
87.786373009618245
 20
68.995584636144713
 30
0.0
  0
VERTEX
  5
95A
  8
DATA
  6
CONTINUOUS
 62
     7
 10
88.214226366857417
 20
68.995590439218219
 30
0.0
  0
VERTEX
  5
95B
  8
DATA
  6
CONTINUOUS
 62
     7
 10
88.638729399578267
 20
68.995596196850514
 30
0.0
  0
VERTEX
  5
95C
  8
DATA
  6
CONTINUOUS
 62
     7
 10
89.05988210778078
 20
68.995601909041611
 30
0.0
  0
VERTEX
  5
95D
  8
DATA
  6
CONTINUOUS
 62
     7
 10
89.459908305542029
 20
68.995607334688984
 30
0.0
  0
VERTEX
  5
95E
  8
DATA
  6
CONTINUOUS
 62
     7
 10
89.821031806939004
 20
68.995612232690149
 30
0.0
  0
VERTEX
  5
95F
  8
DATA
  6
CONTINUOUS
 62
     7
 10
90.143252611971803
 20
68.995616603045065
 30
0.0
  0
VERTEX
  5
960
  8
DATA
  6
CONTINUOUS
 62
     7
 10
90.426570720640314
 20
68.995620445753772
 30
0.0
  0
VERTEX
  5
961
  8
DATA
  6
CONTINUOUS
 62
     7
 10
90.670986132944606
 20
68.995623760816244
 30
0.0
  0
VERTEX
  5
962
  8
DATA
  6
CONTINUOUS
 62
     7
 10
90.876498848884609
 20
68.995626548232494
 30
0.0
  0
VERTEX
  5
963
  8
DATA
  6
CONTINUOUS
 62
     7
 10
91.043108868460408
 20
68.995628808002522
 30
0.0
  0
VERTEX
  5
964
  8
DATA
  6
CONTINUOUS
 62
     7
 10
91.170816191671946
 20
68.995630540126328
 30
0.0
  0
VERTEX
  5
965
  8
DATA
  6
CONTINUOUS
 62
     7
 10
91.170816191671946
 20
68.995630540126328
 30
0.0
  0
VERTEX
  5
966
  8
DATA
  6
CONTINUOUS
 62
     7
 10
91.170816191671946
 20
68.995630540126328
 30
0.0
  0
VERTEX
  5
967
  8
DATA
  6
CONTINUOUS
 62
     7
 10
91.199581834756202
 20
68.995630540126328
 30
0.0
  0
VERTEX
  5
968
  8
DATA
  6
CONTINUOUS
 62
     7
 10
91.451241660850641
 20
69.01746360808508
 30
0.0
  0
VERTEX
  5
969
  8
DATA
  6
CONTINUOUS
 62
     7
 10
91.692428424795281
 20
69.058537403152215
 30
0.0
  0
VERTEX
  5
96A
  8
DATA
  6
CONTINUOUS
 62
     7
 10
91.923142126590065
 20
69.118851925327775
 30
0.0
  0
VERTEX
  5
96B
  8
DATA
  6
CONTINUOUS
 62
     7
 10
92.143382766235064
 20
69.198407174611731
 30
0.0
  0
VERTEX
  5
96C
  8
DATA
  6
CONTINUOUS
 62
     7
 10
92.353150343730178
 20
69.297203151004069
 30
0.0
  0
VERTEX
  5
96D
  8
DATA
  6
CONTINUOUS
 62
     7
 10
92.552444859075507
 20
69.415239854504819
 30
0.0
  0
VERTEX
  5
96E
  8
DATA
  6
CONTINUOUS
 62
     7
 10
92.741266312270966
 20
69.55251728511395
 30
0.0
  0
VERTEX
  5
96F
  8
DATA
  6
CONTINUOUS
 62
     7
 10
92.919614703316597
 20
69.709035442831464
 30
0.0
  0
VERTEX
  5
970
  8
DATA
  6
CONTINUOUS
 62
     7
 10
92.919614703316597
 20
69.709035442831464
 30
0.0
  0
VERTEX
  5
971
  8
DATA
  6
CONTINUOUS
 62
     7
 10
92.938462133510214
 20
69.727882873025763
 30
0.0
  0
SEQEND
  5
972
  8
DATA
  6
CONTINUOUS
 62
     7
  0
POLYLINE
  5
207
  8
DATA
  6
CONTINUOUS
 62
     7
 66
     1
 10
0.0
 20
0.0
 30
0.0
 70
   128
  0
VERTEX
  5
973
  8
DATA
  6
CONTINUOUS
 62
     7
 10
92.938462133510214
 20
69.727882873025763
 30
0.0
  0
VERTEX
  5
974
  8
DATA
  6
CONTINUOUS
 62
     7
 10
92.957309563703802
 20
69.74673030322009
 30
0.0
  0
VERTEX
  5
975
  8
DATA
  6
CONTINUOUS
 62
     7
 10
93.114564180822086
 20
69.925828458945944
 30
0.0
  0
VERTEX
  5
976
  8
DATA
  6
CONTINUOUS
 62
     7
 10
93.252364626322816
 20
70.115179655561391
 30
0.0
  0
VERTEX
  5
977
  8
DATA
  6
CONTINUOUS
 62
     7
 10
93.370710900205978
 20
70.314783893066448
 30
0.0
  0
VERTEX
  5
978
  8
DATA
  6
CONTINUOUS
 62
     7
 10
93.469603002471644
 20
70.524641171461099
 30
0.0
  0
VERTEX
  5
979
  8
DATA
  6
CONTINUOUS
 62
     7
 10
93.549040933119699
 20
70.744751490745315
 30
0.0
  0
VERTEX
  5
97A
  8
DATA
  6
CONTINUOUS
 62
     7
 10
93.609024692150228
 20
70.975114850919155
 30
0.0
  0
VERTEX
  5
97B
  8
DATA
  6
CONTINUOUS
 62
     7
 10
93.649554279563219
 20
71.215731251982575
 30
0.0
  0
VERTEX
  5
97C
  8
DATA
  6
CONTINUOUS
 62
     7
 10
93.670629695358699
 20
71.466600693935604
 30
0.0
  0
VERTEX
  5
97D
  8
DATA
  6
CONTINUOUS
 62
     7
 10
93.670629695358699
 20
71.466600693935604
 30
0.0
  0
VERTEX
  5
97E
  8
DATA
  6
CONTINUOUS
 62
     7
 10
93.670629695358699
 20
71.495359272765583
 30
0.0
  0
VERTEX
  5
97F
  8
DATA
  6
CONTINUOUS
 62
     7
 10
93.670629695358699
 20
71.495359272765583
 30
0.0
  0
VERTEX
  5
980
  8
DATA
  6
CONTINUOUS
 62
     7
 10
93.67062742495159
 20
71.650700550449301
 30
0.0
  0
VERTEX
  5
981
  8
DATA
  6
CONTINUOUS
 62
     7
 10
93.670624514563045
 20
71.849829354301335
 30
0.0
  0
VERTEX
  5
982
  8
DATA
  6
CONTINUOUS
 62
     7
 10
93.670620964193006
 20
72.092745684321685
 30
0.0
  0
VERTEX
  5
983
  8
DATA
  6
CONTINUOUS
 62
     7
 10
93.670616773841473
 20
72.379449540510365
 30
0.0
  0
VERTEX
  5
984
  8
DATA
  6
CONTINUOUS
 62
     7
 10
93.670611943508504
 20
72.709940922867375
 30
0.0
  0
VERTEX
  5
985
  8
DATA
  6
CONTINUOUS
 62
     7
 10
93.670606473194084
 20
73.084219831392701
 30
0.0
  0
VERTEX
  5
986
  8
DATA
  6
CONTINUOUS
 62
     7
 10
93.670600362898213
 20
73.502286266086372
 30
0.0
  0
VERTEX
  5
987
  8
DATA
  6
CONTINUOUS
 62
     7
 10
93.670593612620806
 20
73.964140226948345
 30
0.0
  0
VERTEX
  5
988
  8
DATA
  6
CONTINUOUS
 62
     7
 10
93.670586511293351
 20
74.450013034352935
 30
0.0
  0
VERTEX
  5
989
  8
DATA
  6
CONTINUOUS
 62
     7
 10
93.670579347847195
 20
74.940136008674372
 30
0.0
  0
VERTEX
  5
98A
  8
DATA
  6
CONTINUOUS
 62
     7
 10
93.670572122282294
 20
75.434509149912671
 30
0.0
  0
VERTEX
  5
98B
  8
DATA
  6
CONTINUOUS
 62
     7
 10
93.670564834598707
 20
75.933132458067846
 30
0.0
  0
VERTEX
  5
98C
  8
DATA
  6
CONTINUOUS
 62
     7
 10
93.670557484796433
 20
76.436005933139882
 30
0.0
  0
VERTEX
  5
98D
  8
DATA
  6
CONTINUOUS
 62
     7
 10
93.6705500728754
 20
76.943129575128765
 30
0.0
  0
VERTEX
  5
98E
  8
DATA
  6
CONTINUOUS
 62
     7
 10
93.670542598835681
 20
77.454503384034524
 30
0.0
  0
VERTEX
  5
98F
  8
DATA
  6
CONTINUOUS
 62
     7
 10
93.670535062677274
 20
77.970127359857173
 30
0.0
  0
VERTEX
  5
990
  8
DATA
  6
CONTINUOUS
 62
     7
 10
93.670527427301693
 20
78.492539773344149
 30
0.0
  0
VERTEX
  5
991
  8
DATA
  6
CONTINUOUS
 62
     7
 10
93.670519655610505
 20
79.024278895243015
 30
0.0
  0
VERTEX
  5
992
  8
DATA
  6
CONTINUOUS
 62
     7
 10
93.670511747603797
 20
79.565344725553729
 30
0.0
  0
VERTEX
  5
993
  8
DATA
  6
CONTINUOUS
 62
     7
 10
93.670503703281483
 20
80.115737264276291
 30
0.0
  0
VERTEX
  5
994
  8
DATA
  6
CONTINUOUS
 62
     7
 10
93.670495522643563
 20
80.675456511410701
 30
0.0
  0
VERTEX
  5
995
  8
DATA
  6
CONTINUOUS
 62
     7
 10
93.670487205690065
 20
81.244502466957016
 30
0.0
  0
VERTEX
  5
996
  8
DATA
  6
CONTINUOUS
 62
     7
 10
93.670478752420976
 20
81.822875130915179
 30
0.0
  0
VERTEX
  5
997
  8
DATA
  6
CONTINUOUS
 62
     7
 10
93.670470162836381
 20
82.410574503285176
 30
0.0
  0
VERTEX
  5
998
  8
DATA
  6
CONTINUOUS
 62
     7
 10
93.670461491469226
 20
83.00386943305142
 30
0.0
  0
VERTEX
  5
999
  8
DATA
  6
CONTINUOUS
 62
     7
 10
93.670452792852686
 20
83.599028769198185
 30
0.0
  0
VERTEX
  5
99A
  8
DATA
  6
CONTINUOUS
 62
     7
 10
93.67044406698669
 20
84.196052511725483
 30
0.0
  0
VERTEX
  5
99B
  8
DATA
  6
CONTINUOUS
 62
     7
 10
93.670435313871224
 20
84.794940660633344
 30
0.0
  0
VERTEX
  5
99C
  8
DATA
  6
CONTINUOUS
 62
     7
 10
93.670426533506415
 20
85.395693215921767
 30
0.0
  0
VERTEX
  5
99D
  8
DATA
  6
CONTINUOUS
 62
     7
 10
93.670417725892122
 20
85.998310177590696
 30
0.0
  0
VERTEX
  5
99E
  8
DATA
  6
CONTINUOUS
 62
     7
 10
93.670408891028444
 20
86.602791545640244
 30
0.0
  0
VERTEX
  5
99F
  8
DATA
  6
CONTINUOUS
 62
     7
 10
93.67040002891531
 20
87.209137320070255
 30
0.0
  0
VERTEX
  5
9A0
  8
DATA
  6
CONTINUOUS
 62
     7
 10
93.670391194058297
 20
87.813618231906304
 30
0.0
  0
VERTEX
  5
9A1
  8
DATA
  6
CONTINUOUS
 62
     7
 10
93.670382440962996
 20
88.412505012173796
 30
0.0
  0
VERTEX
  5
9A2
  8
DATA
  6
CONTINUOUS
 62
     7
 10
93.670373769629407
 20
89.005797660872702
 30
0.0
  0
VERTEX
  5
9A3
  8
DATA
  6
CONTINUOUS
 62
     7
 10
93.670365180057487
 20
89.593496178003065
 30
0.0
  0
VERTEX
  5
9A4
  8
DATA
  6
CONTINUOUS
 62
     7
 10
93.670356672247237
 20
90.175600563564871
 30
0.0
  0
VERTEX
  5
9A5
  8
DATA
  6
CONTINUOUS
 62
     7
 10
93.670348246198685
 20
90.752110817558105
 30
0.0
  0
VERTEX
  5
9A6
  8
DATA
  6
CONTINUOUS
 62
     7
 10
93.670339901911788
 20
91.323026939982782
 30
0.0
  0
VERTEX
  5
9A7
  8
DATA
  6
CONTINUOUS
 62
     7
 10
93.670331639386603
 20
91.888348930838873
 30
0.0
  0
VERTEX
  5
9A8
  8
DATA
  6
CONTINUOUS
 62
     7
 10
93.670323513130072
 20
92.44434742004708
 30
0.0
  0
VERTEX
  5
9A9
  8
DATA
  6
CONTINUOUS
 62
     7
 10
93.670315577649205
 20
92.987293037528019
 30
0.0
  0
VERTEX
  5
9AA
  8
DATA
  6
CONTINUOUS
 62
     7
 10
93.670307832943934
 20
93.51718578328169
 30
0.0
  0
VERTEX
  5
9AB
  8
DATA
  6
CONTINUOUS
 62
     7
 10
93.670300279014356
 20
94.034025657308064
 30
0.0
  0
VERTEX
  5
9AC
  8
DATA
  6
CONTINUOUS
 62
     7
 10
93.670292915860372
 20
94.537812659607184
 30
0.0
  0
VERTEX
  5
9AD
  8
DATA
  6
CONTINUOUS
 62
     7
 10
93.670285743482054
 20
95.028546790179064
 30
0.0
  0
VERTEX
  5
9AE
  8
DATA
  6
CONTINUOUS
 62
     7
 10
93.670278761879374
 20
95.506228049023576
 30
0.0
  0
VERTEX
  5
9AF
  8
DATA
  6
CONTINUOUS
 62
     7
 10
93.670271971052301
 20
95.970856436140906
 30
0.0
  0
VERTEX
  5
9B0
  8
DATA
  6
CONTINUOUS
 62
     7
 10
93.670265425589406
 20
96.41869700787008
 30
0.0
  0
VERTEX
  5
9B1
  8
DATA
  6
CONTINUOUS
 62
     7
 10
93.670259180079114
 20
96.846014820550238
 30
0.0
  0
VERTEX
  5
9B2
  8
DATA
  6
CONTINUOUS
 62
     7
 10
93.670253234521425
 20
97.252809874181381
 30
0.0
  0
VERTEX
  5
9B3
  8
DATA
  6
CONTINUOUS
 62
     7
 10
93.670247588916354
 20
97.63908216876348
 30
0.0
  0
VERTEX
  5
9B4
  8
DATA
  6
CONTINUOUS
 62
     7
 10
93.670242243263914
 20
98.004831704296564
 30
0.0
  0
VERTEX
  5
9B5
  8
DATA
  6
CONTINUOUS
 62
     7
 10
93.670237197564077
 20
98.350058480780675
 30
0.0
  0
VERTEX
  5
9B6
  8
DATA
  6
CONTINUOUS
 62
     7
 10
93.670232451816887
 20
98.674762498215713
 30
0.0
  0
VERTEX
  5
9B7
  8
DATA
  6
CONTINUOUS
 62
     7
 10
93.670228006022313
 20
98.978943756601765
 30
0.0
  0
VERTEX
  5
9B8
  8
DATA
  6
CONTINUOUS
 62
     7
 10
93.670223900838906
 20
99.259820398104807
 30
0.0
  0
VERTEX
  5
9B9
  8
DATA
  6
CONTINUOUS
 62
     7
 10
93.670220176925255
 20
99.514610564890802
 30
0.0
  0
VERTEX
  5
9BA
  8
DATA
  6
CONTINUOUS
 62
     7
 10
93.670216834281334
 20
99.743314256959806
 30
0.0
  0
VERTEX
  5
9BB
  8
DATA
  6
CONTINUOUS
 62
     7
 10
93.670213872907183
 20
99.945931474311735
 30
0.0
  0
VERTEX
  5
9BC
  8
DATA
  6
CONTINUOUS
 62
     7
 10
93.670211292802804
 20
100.1224622169466
 30
0.0
  0
VERTEX
  5
9BD
  8
DATA
  6
CONTINUOUS
 62
     7
 10
93.670209093968126
 20
100.27290648486451
 30
0.0
  0
VERTEX
  5
9BE
  8
DATA
  6
CONTINUOUS
 62
     7
 10
93.670207276403204
 20
100.39726427806541
 30
0.0
  0
VERTEX
  5
9BF
  8
DATA
  6
CONTINUOUS
 62
     7
 10
93.670205840108054
 20
100.4955355965493
 30
0.0
  0
VERTEX
  5
9C0
  8
DATA
  6
CONTINUOUS
 62
     7
 10
93.670205840108054
 20
100.4955355965493
 30
0.0
  0
VERTEX
  5
9C1
  8
DATA
  6
CONTINUOUS
 62
     7
 10
93.670205840108054
 20
100.4955355965493
 30
0.0
  0
VERTEX
  5
9C2
  8
DATA
  6
CONTINUOUS
 62
     7
 10
93.670205840108054
 20
100.55305981846421
 30
0.0
  0
VERTEX
  5
9C3
  8
DATA
  6
CONTINUOUS
 62
     7
 10
93.648635956606768
 20
100.768170952229
 30
0.0
  0
VERTEX
  5
9C4
  8
DATA
  6
CONTINUOUS
 62
     7
 10
93.610512233959369
 20
100.97946095739221
 30
0.0
  0
VERTEX
  5
9C5
  8
DATA
  6
CONTINUOUS
 62
     7
 10
93.555834672165773
 20
101.186929833954
 30
0.0
  0
VERTEX
  5
9C6
  8
DATA
  6
CONTINUOUS
 62
     7
 10
93.48460327122605
 20
101.3905775819144
 30
0.0
  0
VERTEX
  5
9C7
  8
DATA
  6
CONTINUOUS
 62
     7
 10
93.396818031140143
 20
101.5904042012732
 30
0.0
  0
VERTEX
  5
9C8
  8
DATA
  6
CONTINUOUS
 62
     7
 10
93.292478951908095
 20
101.7864096920305
 30
0.0
  0
VERTEX
  5
9C9
  8
DATA
  6
CONTINUOUS
 62
     7
 10
93.171586033529834
 20
101.9785940541864
 30
0.0
  0
VERTEX
  5
9CA
  8
DATA
  6
CONTINUOUS
 62
     7
 10
93.034139276005476
 20
102.1669572877407
 30
0.0
  0
VERTEX
  5
9CB
  8
DATA
  6
CONTINUOUS
 62
     7
 10
92.87840750403393
 20
102.34304567086031
 30
0.0
  0
VERTEX
  5
9CC
  8
DATA
  6
CONTINUOUS
 62
     7
 10
92.702659542314223
 20
102.4984054817116
 30
0.0
  0
VERTEX
  5
9CD
  8
DATA
  6
CONTINUOUS
 62
     7
 10
92.506895390846367
 20
102.6330367202948
 30
0.0
  0
VERTEX
  5
9CE
  8
DATA
  6
CONTINUOUS
 62
     7
 10
92.291115049630321
 20
102.7469393866097
 30
0.0
  0
VERTEX
  5
9CF
  8
DATA
  6
CONTINUOUS
 62
     7
 10
92.055318518666155
 20
102.8401134806566
 30
0.0
  0
VERTEX
  5
9D0
  8
DATA
  6
CONTINUOUS
 62
     7
 10
91.799505797953756
 20
102.9125590024351
 30
0.0
  0
VERTEX
  5
9D1
  8
DATA
  6
CONTINUOUS
 62
     7
 10
91.523676887493224
 20
102.9642759519456
 30
0.0
  0
VERTEX
  5
9D2
  8
DATA
  6
CONTINUOUS
 62
     7
 10
91.227831787284572
 20
102.9952643291879
 30
0.0
  0
VERTEX
  5
9D3
  8
DATA
  6
CONTINUOUS
 62
     7
 10
91.227831787284572
 20
102.9952643291879
 30
0.0
  0
VERTEX
  5
9D4
  8
DATA
  6
CONTINUOUS
 62
     7
 10
91.170307565368944
 20
102.9952643291879
 30
0.0
  0
VERTEX
  5
9D5
  8
DATA
  6
CONTINUOUS
 62
     7
 10
91.170307565368944
 20
102.9952643291879
 30
0.0
  0
VERTEX
  5
9D6
  8
DATA
  6
CONTINUOUS
 62
     7
 10
91.084007663759763
 20
102.99526315868241
 30
0.0
  0
VERTEX
  5
9D7
  8
DATA
  6
CONTINUOUS
 62
     7
 10
90.975410862373167
 20
102.995261685759
 30
0.0
  0
VERTEX
  5
9D8
  8
DATA
  6
CONTINUOUS
 62
     7
 10
90.844517161209154
 20
102.9952599104175
 30
0.0
  0
VERTEX
  5
9D9
  8
DATA
  6
CONTINUOUS
 62
     7
 10
90.691326560267768
 20
102.9952578326581
 30
0.0
  0
VERTEX
  5
9DA
  8
DATA
  6
CONTINUOUS
 62
     7
 10
90.515839059548995
 20
102.99525545248081
 30
0.0
  0
VERTEX
  5
9DB
  8
DATA
  6
CONTINUOUS
 62
     7
 10
90.318054659052791
 20
102.9952527698854
 30
0.0
  0
VERTEX
  5
9DC
  8
DATA
  6
CONTINUOUS
 62
     7
 10
90.097973358779186
 20
102.995249784872
 30
0.0
  0
VERTEX
  5
9DD
  8
DATA
  6
CONTINUOUS
 62
     7
 10
89.855595158728249
 20
102.9952464974407
 30
0.0
  0
VERTEX
  5
9DE
  8
DATA
  6
CONTINUOUS
 62
     7
 10
89.59323167904958
 20
102.9952429389445
 30
0.0
  0
VERTEX
  5
9DF
  8
DATA
  6
CONTINUOUS
 62
     7
 10
89.313194539892933
 20
102.9952391407363
 30
0.0
  0
VERTEX
  5
9E0
  8
DATA
  6
CONTINUOUS
 62
     7
 10
89.015483741258322
 20
102.9952351028162
 30
0.0
  0
VERTEX
  5
9E1
  8
DATA
  6
CONTINUOUS
 62
     7
 10
88.700099283145732
 20
102.99523082518429
 30
0.0
  0
VERTEX
  5
9E2
  8
DATA
  6
CONTINUOUS
 62
     7
 10
88.367041165555136
 20
102.9952263078404
 30
0.0
  0
VERTEX
  5
9E3
  8
DATA
  6
CONTINUOUS
 62
     7
 10
88.016309388486576
 20
102.99522155078461
 30
0.0
  0
VERTEX
  5
9E4
  8
DATA
  6
CONTINUOUS
 62
     7
 10
87.647903951940066
 20
102.99521655401691
 30
0.0
  0
VERTEX
  5
9E5
  8
DATA
  6
CONTINUOUS
 62
     7
 10
87.261824855915549
 20
102.9952113175373
 30
0.0
  0
VERTEX
  5
9E6
  8
DATA
  6
CONTINUOUS
 62
     7
 10
86.861282531388341
 20
102.9952058848896
 30
0.0
  0
VERTEX
  5
9E7
  8
DATA
  6
CONTINUOUS
 62
     7
 10
86.449487409333784
 20
102.99520029961769
 30
0.0
  0
VERTEX
  5
9E8
  8
DATA
  6
CONTINUOUS
 62
     7
 10
86.02643948975188
 20
102.99519456172141
 30
0.0
  0
VERTEX
  5
9E9
  8
DATA
  6
CONTINUOUS
 62
     7
 10
85.592138772642599
 20
102.99518867120101
 30
0.0
  0
VERTEX
  5
9EA
  8
DATA
  6
CONTINUOUS
 62
     7
 10
85.146585258005985
 20
102.9951826280562
 30
0.0
  0
VERTEX
  5
9EB
  8
DATA
  6
CONTINUOUS
 62
     7
 10
84.689778945841965
 20
102.9951764322871
 30
0.0
  0
VERTEX
  5
9EC
  8
DATA
  6
CONTINUOUS
 62
     7
 10
84.221719836150626
 20
102.9951700838938
 30
0.0
  0
VERTEX
  5
9ED
  8
DATA
  6
CONTINUOUS
 62
     7
 10
83.742407928931925
 20
102.9951635828763
 30
0.0
  0
VERTEX
  5
9EE
  8
DATA
  6
CONTINUOUS
 62
     7
 10
83.255058682561952
 20
102.9951569728465
 30
0.0
  0
VERTEX
  5
9EF
  8
DATA
  6
CONTINUOUS
 62
     7
 10
82.76288755541681
 20
102.9951502974163
 30
0.0
  0
VERTEX
  5
9F0
  8
DATA
  6
CONTINUOUS
 62
     7
 10
82.265894547496544
 20
102.9951435565858
 30
0.0
  0
VERTEX
  5
9F1
  8
DATA
  6
CONTINUOUS
 62
     7
 10
81.764079658801123
 20
102.995136750355
 30
0.0
  0
VERTEX
  5
9F2
  8
DATA
  6
CONTINUOUS
 62
     7
 10
81.257442889330534
 20
102.9951298787239
 30
0.0
  0
VERTEX
  5
9F3
  8
DATA
  6
CONTINUOUS
 62
     7
 10
80.745984239084791
 20
102.9951229416925
 30
0.0
  0
VERTEX
  5
9F4
  8
DATA
  6
CONTINUOUS
 62
     7
 10
80.229703708063923
 20
102.9951159392608
 30
0.0
  0
VERTEX
  5
9F5
  8
DATA
  6
CONTINUOUS
 62
     7
 10
79.708601296267872
 20
102.9951088714288
 30
0.0
  0
VERTEX
  5
9F6
  8
DATA
  6
CONTINUOUS
 62
     7
 10
79.185890268979094
 20
102.9951017817788
 30
0.0
  0
VERTEX
  5
9F7
  8
DATA
  6
CONTINUOUS
 62
     7
 10
78.664783891480013
 20
102.995094713893
 30
0.0
  0
VERTEX
  5
9F8
  8
DATA
  6
CONTINUOUS
 62
     7
 10
78.145282163770631
 20
102.9950876677715
 30
0.0
  0
VERTEX
  5
9F9
  8
DATA
  6
CONTINUOUS
 62
     7
 10
77.627385085850932
 20
102.9950806434142
 30
0.0
  0
VERTEX
  5
9FA
  8
DATA
  6
CONTINUOUS
 62
     7
 10
77.111092657720903
 20
102.9950736408212
 30
0.0
  0
VERTEX
  5
9FB
  8
DATA
  6
CONTINUOUS
 62
     7
 10
76.5964048793806
 20
102.9950666599925
 30
0.0
  0
VERTEX
  5
9FC
  8
DATA
  6
CONTINUOUS
 62
     7
 10
76.083321750829953
 20
102.995059700928
 30
0.0
  0
VERTEX
  5
9FD
  8
DATA
  6
CONTINUOUS
 62
     7
 10
75.571843272068989
 20
102.9950527636278
 30
0.0
  0
VERTEX
  5
9FE
  8
DATA
  6
CONTINUOUS
 62
     7
 10
75.065191868938882
 20
102.9950458917983
 30
0.0
  0
VERTEX
  5
9FF
  8
DATA
  6
CONTINUOUS
 62
     7
 10
74.566589967280763
 20
102.99503912914599
 30
0.0
  0
VERTEX
  5
A00
  8
DATA
  6
CONTINUOUS
 62
     7
 10
74.076037567094673
 20
102.995032475671
 30
0.0
  0
VERTEX
  5
A01
  8
DATA
  6
CONTINUOUS
 62
     7
 10
73.593534668380542
 20
102.99502593137321
 30
0.0
  0
VERTEX
  5
A02
  8
DATA
  6
CONTINUOUS
 62
     7
 10
73.119081271138427
 20
102.9950194962527
 30
0.0
  0
VERTEX
  5
A03
  8
DATA
  6
CONTINUOUS
 62
     7
 10
72.652677375368299
 20
102.99501317030931
 30
0.0
  0
VERTEX
  5
A04
  8
DATA
  6
CONTINUOUS
 62
     7
 10
72.194322981070144
 20
102.9950069535433
 30
0.0
  0
VERTEX
  5
A05
  8
DATA
  6
CONTINUOUS
 62
     7
 10
71.744018088244019
 20
102.99500084595439
 30
0.0
  0
VERTEX
  5
A06
  8
DATA
  6
CONTINUOUS
 62
     7
 10
71.299413108413063
 20
102.9949948156748
 30
0.0
  0
VERTEX
  5
A07
  8
DATA
  6
CONTINUOUS
 62
     7
 10
70.858158453100458
 20
102.99498883083641
 30
0.0
  0
VERTEX
  5
A08
  8
DATA
  6
CONTINUOUS
 62
     7
 10
70.42025412230619
 20
102.99498289143919
 30
0.0
  0
VERTEX
  5
A09
  8
DATA
  6
CONTINUOUS
 62
     7
 10
69.985700116030259
 20
102.99497699748331
 30
0.0
  0
VERTEX
  5
A0A
  8
DATA
  6
CONTINUOUS
 62
     7
 10
69.55449643427265
 20
102.9949711489686
 30
0.0
  0
VERTEX
  5
A0B
  8
DATA
  6
CONTINUOUS
 62
     7
 10
69.126643077033435
 20
102.9949653458951
 30
0.0
  0
VERTEX
  5
A0C
  8
DATA
  6
CONTINUOUS
 62
     7
 10
68.702140044312557
 20
102.9949595882629
 30
0.0
  0
VERTEX
  5
A0D
  8
DATA
  6
CONTINUOUS
 62
     7
 10
68.28098733611003
 20
102.9949538760718
 30
0.0
  0
VERTEX
  5
A0E
  8
DATA
  6
CONTINUOUS
 62
     7
 10
67.880961138348823
 20
102.9949484504245
 30
0.0
  0
VERTEX
  5
A0F
  8
DATA
  6
CONTINUOUS
 62
     7
 10
67.519837636951891
 20
102.99494355242351
 30
0.0
  0
VERTEX
  5
A10
  8
DATA
  6
CONTINUOUS
 62
     7
 10
67.197616831919248
 20
102.99493918206861
 30
0.0
  0
VERTEX
  5
A11
  8
DATA
  6
CONTINUOUS
 62
     7
 10
66.91429872325088
 20
102.9949353393599
 30
0.0
  0
VERTEX
  5
A12
  8
DATA
  6
CONTINUOUS
 62
     7
 10
66.669883310946801
 20
102.9949320242975
 30
0.0
  0
VERTEX
  5
A13
  8
DATA
  6
CONTINUOUS
 62
     7
 10
66.464370595007011
 20
102.9949292368813
 30
0.0
  0
VERTEX
  5
A14
  8
DATA
  6
CONTINUOUS
 62
     7
 10
66.297760575431496
 20
102.99492697711131
 30
0.0
  0
VERTEX
  5
A15
  8
DATA
  6
CONTINUOUS
 62
     7
 10
66.170053252220285
 20
102.9949252449875
 30
0.0
  0
VERTEX
  5
A16
  8
DATA
  6
CONTINUOUS
 62
     7
 10
66.170053252220285
 20
102.9949252449875
 30
0.0
  0
VERTEX
  5
A17
  8
DATA
  6
CONTINUOUS
 62
     7
 10
66.170053252220285
 20
102.9949252449875
 30
0.0
  0
VERTEX
  5
A18
  8
DATA
  6
CONTINUOUS
 62
     7
 10
66.141291141262471
 20
102.9949252449875
 30
0.0
  0
VERTEX
  5
A19
  8
DATA
  6
CONTINUOUS
 62
     7
 10
65.890506040871003
 20
102.9739440495589
 30
0.0
  0
VERTEX
  5
A1A
  8
DATA
  6
CONTINUOUS
 62
     7
 10
65.649944080999916
 20
102.9334787348705
 30
0.0
  0
VERTEX
  5
A1B
  8
DATA
  6
CONTINUOUS
 62
     7
 10
65.419605261649153
 20
102.8735293009221
 30
0.0
  0
VERTEX
  5
A1C
  8
DATA
  6
CONTINUOUS
 62
     7
 10
65.199489582818757
 20
102.7940957477139
 30
0.0
  0
VERTEX
  5
A1D
  8
DATA
  6
CONTINUOUS
 62
     7
 10
64.989597044508713
 20
102.69517807524571
 30
0.0
  0
VERTEX
  5
A1E
  8
DATA
  6
CONTINUOUS
 62
     7
 10
64.789927646718994
 20
102.5767762835176
 30
0.0
  0
VERTEX
  5
A1F
  8
DATA
  6
CONTINUOUS
 62
     7
 10
64.600481389449641
 20
102.4388903725296
 30
0.0
  0
VERTEX
  5
A20
  8
DATA
  6
CONTINUOUS
 62
     7
 10
64.421258272700641
 20
102.2815203422816
 30
0.0
  0
VERTEX
  5
A21
  8
DATA
  6
CONTINUOUS
 62
     7
 10
64.421258272700641
 20
102.2815203422816
 30
0.0
  0
VERTEX
  5
A22
  8
DATA
  6
CONTINUOUS
 62
     7
 10
64.402407310379203
 20
102.2626729120873
 30
0.0
  0
SEQEND
  5
A23
  8
DATA
  6
CONTINUOUS
 62
     7
  0
POLYLINE
  5
2B9
  8
DATA
  6
CONTINUOUS
 62
     7
 66
     1
 10
0.0
 20
0.0
 30
0.0
 70
   128
  0
VERTEX
  5
A24
  8
DATA
  6
CONTINUOUS
 62
     7
 10
84.670911135246627
 20
72.846948899502024
 30
0.0
  0
VERTEX
  5
A25
  8
DATA
  6
CONTINUOUS
 62
     7
 10
84.678001628101512
 20
72.849710013712908
 30
0.0
  0
VERTEX
  5
A26
  8
DATA
  6
CONTINUOUS
 62
     7
 10
84.749778883635798
 20
72.88098602927731
 30
0.0
  0
VERTEX
  5
A27
  8
DATA
  6
CONTINUOUS
 62
     7
 10
84.818981321571243
 20
72.915312277659069
 30
0.0
  0
VERTEX
  5
A28
  8
DATA
  6
CONTINUOUS
 62
     7
 10
84.885608941907904
 20
72.952688758858059
 30
0.0
  0
VERTEX
  5
A29
  8
DATA
  6
CONTINUOUS
 62
     7
 10
84.949661744645738
 20
72.993115472874351
 30
0.0
  0
VERTEX
  5
A2A
  8
DATA
  6
CONTINUOUS
 62
     7
 10
85.011139729784759
 20
73.036592419707915
 30
0.0
  0
VERTEX
  5
A2B
  8
DATA
  6
CONTINUOUS
 62
     7
 10
85.070042897324939
 20
73.083119599358753
 30
0.0
  0
VERTEX
  5
A2C
  8
DATA
  6
CONTINUOUS
 62
     7
 10
85.126371247266277
 20
73.132697011826863
 30
0.0
  0
VERTEX
  5
A2D
  8
DATA
  6
CONTINUOUS
 62
     7
 10
85.180124779608832
 20
73.185324657112275
 30
0.0
  0
VERTEX
  5
A2E
  8
DATA
  6
CONTINUOUS
 62
     7
 10
85.180124779608832
 20
73.185324657112275
 30
0.0
  0
VERTEX
  5
A2F
  8
DATA
  6
CONTINUOUS
 62
     7
 10
85.185132326654298
 20
73.190610737609333
 30
0.0
  0
VERTEX
  5
A30
  8
DATA
  6
CONTINUOUS
 62
     7
 10
85.185132326654298
 20
73.190610737609333
 30
0.0
  0
VERTEX
  5
A31
  8
DATA
  6
CONTINUOUS
 62
     7
 10
85.219798374940979
 20
73.228068896721794
 30
0.0
  0
VERTEX
  5
A32
  8
DATA
  6
CONTINUOUS
 62
     7
 10
85.268040476552727
 20
73.280196566514263
 30
0.0
  0
VERTEX
  5
A33
  8
DATA
  6
CONTINUOUS
 62
     7
 10
85.329858631489543
 20
73.346993746986669
 30
0.0
  0
VERTEX
  5
A34
  8
DATA
  6
CONTINUOUS
 62
     7
 10
85.405252839751427
 20
73.428460438139098
 30
0.0
  0
VERTEX
  5
A35
  8
DATA
  6
CONTINUOUS
 62
     7
 10
85.494223101338335
 20
73.52459663997152
 30
0.0
  0
VERTEX
  5
A36
  8
DATA
  6
CONTINUOUS
 62
     7
 10
85.596769416250325
 20
73.635402352483894
 30
0.0
  0
VERTEX
  5
A37
  8
DATA
  6
CONTINUOUS
 62
     7
 10
85.712891784487354
 20
73.760877575676304
 30
0.0
  0
VERTEX
  5
A38
  8
DATA
  6
CONTINUOUS
 62
     7
 10
85.842590206049479
 20
73.901022309548651
 30
0.0
  0
VERTEX
  5
A39
  8
DATA
  6
CONTINUOUS
 62
     7
 10
85.980135655892767
 20
74.04964609564783
 30
0.0
  0
VERTEX
  5
A3A
  8
DATA
  6
CONTINUOUS
 62
     7
 10
86.119799108973353
 20
74.200558475520523
 30
0.0
  0
VERTEX
  5
A3B
  8
DATA
  6
CONTINUOUS
 62
     7
 10
86.261580565291183
 20
74.35375944916683
 30
0.0
  0
VERTEX
  5
A3C
  8
DATA
  6
CONTINUOUS
 62
     7
 10
86.405480024846312
 20
74.509249016586679
 30
0.0
  0
VERTEX
  5
A3D
  8
DATA
  6
CONTINUOUS
 62
     7
 10
86.551497487638727
 20
74.667027177780113
 30
0.0
  0
VERTEX
  5
A3E
  8
DATA
  6
CONTINUOUS
 62
     7
 10
86.699632953668427
 20
74.827093932747104
 30
0.0
  0
VERTEX
  5
A3F
  8
DATA
  6
CONTINUOUS
 62
     7
 10
86.849886422935413
 20
74.98944928148768
 30
0.0
  0
VERTEX
  5
A40
  8
DATA
  6
CONTINUOUS
 62
     7
 10
87.002257895439683
 20
75.154093224001812
 30
0.0
  0
VERTEX
  5
A41
  8
DATA
  6
CONTINUOUS
 62
     7
 10
87.155014854778855
 20
75.31915370165369
 30
0.0
  0
VERTEX
  5
A42
  8
DATA
  6
CONTINUOUS
 62
     7
 10
87.306424784550558
 20
75.482758655807444
 30
0.0
  0
VERTEX
  5
A43
  8
DATA
  6
CONTINUOUS
 62
     7
 10
87.456487684754777
 20
75.64490808646309
 30
0.0
  0
VERTEX
  5
A44
  8
DATA
  6
CONTINUOUS
 62
     7
 10
87.605203555391554
 20
75.805601993620641
 30
0.0
  0
VERTEX
  5
A45
  8
DATA
  6
CONTINUOUS
 62
     7
 10
87.752572396460849
 20
75.964840377280083
 30
0.0
  0
VERTEX
  5
A46
  8
DATA
  6
CONTINUOUS
 62
     7
 10
87.898594207962702
 20
76.122623237441402
 30
0.0
  0
VERTEX
  5
A47
  8
DATA
  6
CONTINUOUS
 62
     7
 10
88.043268989897101
 20
76.278950574104655
 30
0.0
  0
VERTEX
  5
A48
  8
DATA
  6
CONTINUOUS
 62
     7
 10
88.186596742263987
 20
76.433822387269785
 30
0.0
  0
VERTEX
  5
A49
  8
DATA
  6
CONTINUOUS
 62
     7
 10
88.325082539818624
 20
76.583462259595422
 30
0.0
  0
VERTEX
  5
A4A
  8
DATA
  6
CONTINUOUS
 62
     7
 10
88.455231457316202
 20
76.724093773740222
 30
0.0
  0
VERTEX
  5
A4B
  8
DATA
  6
CONTINUOUS
 62
     7
 10
88.577043494756737
 20
76.855716929704187
 30
0.0
  0
VERTEX
  5
A4C
  8
DATA
  6
CONTINUOUS
 62
     7
 10
88.690518652140199
 20
76.978331727487273
 30
0.0
  0
VERTEX
  5
A4D
  8
DATA
  6
CONTINUOUS
 62
     7
 10
88.795656929466617
 20
77.091938167089523
 30
0.0
  0
VERTEX
  5
A4E
  8
DATA
  6
CONTINUOUS
 62
     7
 10
88.892458326735976
 20
77.196536248510895
 30
0.0
  0
VERTEX
  5
A4F
  8
DATA
  6
CONTINUOUS
 62
     7
 10
88.980922843948264
 20
77.292125971751446
 30
0.0
  0
VERTEX
  5
A50
  8
DATA
  6
CONTINUOUS
 62
     7
 10
89.061050481103493
 20
77.378707336811146
 30
0.0
  0
VERTEX
  5
A51
  8
DATA
  6
CONTINUOUS
 62
     7
 10
89.133096169459549
 20
77.456555807900372
 30
0.0
  0
VERTEX
  5
A52
  8
DATA
  6
CONTINUOUS
 62
     7
 10
89.197314840274245
 20
77.525946849229626
 30
0.0
  0
VERTEX
  5
A53
  8
DATA
  6
CONTINUOUS
 62
     7
 10
89.253706493547625
 20
77.58688046079881
 30
0.0
  0
VERTEX
  5
A54
  8
DATA
  6
CONTINUOUS
 62
     7
 10
89.302271129279646
 20
77.639356642608007
 30
0.0
  0
VERTEX
  5
A55
  8
DATA
  6
CONTINUOUS
 62
     7
 10
89.343008747470293
 20
77.683375394657148
 30
0.0
  0
VERTEX
  5
A56
  8
DATA
  6
CONTINUOUS
 62
     7
 10
89.375919348119623
 20
77.718936716946303
 30
0.0
  0
VERTEX
  5
A57
  8
DATA
  6
CONTINUOUS
 62
     7
 10
89.401002931227623
 20
77.746040609475443
 30
0.0
  0
VERTEX
  5
A58
  8
DATA
  6
CONTINUOUS
 62
     7
 10
89.418259496794306
 20
77.764687072244513
 30
0.0
  0
VERTEX
  5
A59
  8
DATA
  6
CONTINUOUS
 62
     7
 10
89.418259496794306
 20
77.764687072244513
 30
0.0
  0
VERTEX
  5
A5A
  8
DATA
  6
CONTINUOUS
 62
     7
 10
89.418259496794306
 20
77.764687072244513
 30
0.0
  0
VERTEX
  5
A5B
  8
DATA
  6
CONTINUOUS
 62
     7
 10
89.426088708800833
 20
77.772958304728533
 30
0.0
  0
VERTEX
  5
A5C
  8
DATA
  6
CONTINUOUS
 62
     7
 10
89.503018769885884
 20
77.8639797514479
 30
0.0
  0
VERTEX
  5
A5D
  8
DATA
  6
CONTINUOUS
 62
     7
 10
89.570268617167528
 20
77.959301153537709
 30
0.0
  0
VERTEX
  5
A5E
  8
DATA
  6
CONTINUOUS
 62
     7
 10
89.627838250645866
 20
78.058922510997803
 30
0.0
  0
VERTEX
  5
A5F
  8
DATA
  6
CONTINUOUS
 62
     7
 10
89.675727670320754
 20
78.162843823828339
 30
0.0
  0
VERTEX
  5
A60
  8
DATA
  6
CONTINUOUS
 62
     7
 10
89.713936876192307
 20
78.271065092029232
 30
0.0
  0
VERTEX
  5
A61
  8
DATA
  6
CONTINUOUS
 62
     7
 10
89.742465868260425
 20
78.383586315600496
 30
0.0
  0
VERTEX
  5
A62
  8
DATA
  6
CONTINUOUS
 62
     7
 10
89.761314646525165
 20
78.500407494542117
 30
0.0
  0
VERTEX
  5
A63
  8
DATA
  6
CONTINUOUS
 62
     7
 10
89.770483210986555
 20
78.621528628854094
 30
0.0
  0
VERTEX
  5
A64
  8
DATA
  6
CONTINUOUS
 62
     7
 10
89.770483210986555
 20
78.621528628854094
 30
0.0
  0
VERTEX
  5
A65
  8
DATA
  6
CONTINUOUS
 62
     7
 10
89.770483210986555
 20
78.633420796203083
 30
0.0
  0
VERTEX
  5
A66
  8
DATA
  6
CONTINUOUS
 62
     7
 10
89.770483210986555
 20
78.633420796203083
 30
0.0
  0
VERTEX
  5
A67
  8
DATA
  6
CONTINUOUS
 62
     7
 10
89.770481822567419
 20
78.697807343913723
 30
0.0
  0
VERTEX
  5
A68
  8
DATA
  6
CONTINUOUS
 62
     7
 10
89.770479890410201
 20
78.787409203098989
 30
0.0
  0
VERTEX
  5
A69
  8
DATA
  6
CONTINUOUS
 62
     7
 10
89.770477414514829
 20
78.902226373758808
 30
0.0
  0
VERTEX
  5
A6A
  8
DATA
  6
CONTINUOUS
 62
     7
 10
89.770474394881347
 20
79.04225885589328
 30
0.0
  0
VERTEX
  5
A6B
  8
DATA
  6
CONTINUOUS
 62
     7
 10
89.770470831509741
 20
79.207506649502349
 30
0.0
  0
VERTEX
  5
A6C
  8
DATA
  6
CONTINUOUS
 62
     7
 10
89.770466724400009
 20
79.397969754585986
 30
0.0
  0
VERTEX
  5
A6D
  8
DATA
  6
CONTINUOUS
 62
     7
 10
89.770462073552196
 20
79.613648171144263
 30
0.0
  0
VERTEX
  5
A6E
  8
DATA
  6
CONTINUOUS
 62
     7
 10
89.770456878966243
 20
79.854541899177093
 30
0.0
  0
VERTEX
  5
A6F
  8
DATA
  6
CONTINUOUS
 62
     7
 10
89.770451370096836
 20
80.110010206251573
 30
0.0
  0
VERTEX
  5
A70
  8
DATA
  6
CONTINUOUS
 62
     7
 10
89.770445776398731
 20
80.369412359934756
 30
0.0
  0
VERTEX
  5
A71
  8
DATA
  6
CONTINUOUS
 62
     7
 10
89.770440097871898
 20
80.632748360226572
 30
0.0
  0
VERTEX
  5
A72
  8
DATA
  6
CONTINUOUS
 62
     7
 10
89.770434334516324
 20
80.900018207127047
 30
0.0
  0
VERTEX
  5
A73
  8
DATA
  6
CONTINUOUS
 62
     7
 10
89.770428486332094
 20
81.171221900636183
 30
0.0
  0
VERTEX
  5
A74
  8
DATA
  6
CONTINUOUS
 62
     7
 10
89.770422553319094
 20
81.44635944075398
 30
0.0
  0
VERTEX
  5
A75
  8
DATA
  6
CONTINUOUS
 62
     7
 10
89.770416535477395
 20
81.725430827480437
 30
0.0
  0
VERTEX
  5
A76
  8
DATA
  6
CONTINUOUS
 62
     7
 10
89.770410432806926
 20
82.008436060815527
 30
0.0
  0
VERTEX
  5
A77
  8
DATA
  6
CONTINUOUS
 62
     7
 10
89.770404314697288
 20
82.292157273263214
 30
0.0
  0
VERTEX
  5
A78
  8
DATA
  6
CONTINUOUS
 62
     7
 10
89.770398250537838
 20
82.573376597327282
 30
0.0
  0
VERTEX
  5
A79
  8
DATA
  6
CONTINUOUS
 62
     7
 10
89.770392240328675
 20
82.852094033007745
 30
0.0
  0
VERTEX
  5
A7A
  8
DATA
  6
CONTINUOUS
 62
     7
 10
89.770386284069716
 20
83.128309580304673
 30
0.0
  0
VERTEX
  5
A7B
  8
DATA
  6
CONTINUOUS
 62
     7
 10
89.770380381761058
 20
83.402023239217954
 30
0.0
  0
VERTEX
  5
A7C
  8
DATA
  6
CONTINUOUS
 62
     7
 10
89.770374533402574
 20
83.673235009747685
 30
0.0
  0
VERTEX
  5
A7D
  8
DATA
  6
CONTINUOUS
 62
     7
 10
89.770368738994364
 20
83.941944891893812
 30
0.0
  0
VERTEX
  5
A7E
  8
DATA
  6
CONTINUOUS
 62
     7
 10
89.770362998536413
 20
84.208152885656347
 30
0.0
  0
VERTEX
  5
A7F
  8
DATA
  6
CONTINUOUS
 62
     7
 10
89.770357452004859
 20
84.465367735696375
 30
0.0
  0
VERTEX
  5
A80
  8
DATA
  6
CONTINUOUS
 62
     7
 10
89.770352239375967
 20
84.707098186674983
 30
0.0
  0
VERTEX
  5
A81
  8
DATA
  6
CONTINUOUS
 62
     7
 10
89.770347360649666
 20
84.933344238592156
 30
0.0
  0
VERTEX
  5
A82
  8
DATA
  6
CONTINUOUS
 62
     7
 10
89.770342815825956
 20
85.144105891447907
 30
0.0
  0
VERTEX
  5
A83
  8
DATA
  6
CONTINUOUS
 62
     7
 10
89.770338604904893
 20
85.339383145242238
 30
0.0
  0
VERTEX
  5
A84
  8
DATA
  6
CONTINUOUS
 62
     7
 10
89.770334727886464
 20
85.519175999975147
 30
0.0
  0
VERTEX
  5
A85
  8
DATA
  6
CONTINUOUS
 62
     7
 10
89.770331184770583
 20
85.683484455646592
 30
0.0
  0
VERTEX
  5
A86
  8
DATA
  6
CONTINUOUS
 62
     7
 10
89.770327975557379
 20
85.832308512256645
 30
0.0
  0
VERTEX
  5
A87
  8
DATA
  6
CONTINUOUS
 62
     7
 10
89.770325090036451
 20
85.966121663162781
 30
0.0
  0
VERTEX
  5
A88
  8
DATA
  6
CONTINUOUS
 62
     7
 10
89.770322517997457
 20
86.085397401722588
 30
0.0
  0
VERTEX
  5
A89
  8
DATA
  6
CONTINUOUS
 62
     7
 10
89.770320259440453
 20
86.190135727936024
 30
0.0
  0
VERTEX
  5
A8A
  8
DATA
  6
CONTINUOUS
 62
     7
 10
89.770318314365369
 20
86.280336641803046
 30
0.0
  0
VERTEX
  5
A8B
  8
DATA
  6
CONTINUOUS
 62
     7
 10
89.770316682772233
 20
86.356000143323783
 30
0.0
  0
VERTEX
  5
A8C
  8
DATA
  6
CONTINUOUS
 62
     7
 10
89.770315364661045
 20
86.417126232498134
 30
0.0
  0
VERTEX
  5
A8D
  8
DATA
  6
CONTINUOUS
 62
     7
 10
89.770314360031847
 20
86.463714909326114
 30
0.0
  0
VERTEX
  5
A8E
  8
DATA
  6
CONTINUOUS
 62
     7
 10
89.770313668884583
 20
86.495766173807723
 30
0.0
  0
VERTEX
  5
A8F
  8
DATA
  6
CONTINUOUS
 62
     7
 10
89.770313668884583
 20
86.495766173807723
 30
0.0
  0
VERTEX
  5
A90
  8
DATA
  6
CONTINUOUS
 62
     7
 10
89.770313668884583
 20
86.495766173807723
 30
0.0
  0
VERTEX
  5
A91
  8
DATA
  6
CONTINUOUS
 62
     7
 10
89.770310641347237
 20
86.520410329158437
 30
0.0
  0
VERTEX
  5
A92
  8
DATA
  6
CONTINUOUS
 62
     7
 10
89.751448692713225
 20
86.685585839210816
 30
0.0
  0
VERTEX
  5
A93
  8
DATA
  6
CONTINUOUS
 62
     7
 10
89.721731922358813
 20
86.837413027367177
 30
0.0
  0
VERTEX
  5
A94
  8
DATA
  6
CONTINUOUS
 62
     7
 10
89.681160330283987
 20
86.975891893627576
 30
0.0
  0
VERTEX
  5
A95
  8
DATA
  6
CONTINUOUS
 62
     7
 10
89.62973391648876
 20
87.101022437992015
 30
0.0
  0
VERTEX
  5
A96
  8
DATA
  6
CONTINUOUS
 62
     7
 10
89.567452680973119
 20
87.212804660460492
 30
0.0
  0
VERTEX
  5
A97
  8
DATA
  6
CONTINUOUS
 62
     7
 10
89.494316623737106
 20
87.31123856103298
 30
0.0
  0
VERTEX
  5
A98
  8
DATA
  6
CONTINUOUS
 62
     7
 10
89.410325744780636
 20
87.396324139709506
 30
0.0
  0
VERTEX
  5
A99
  8
DATA
  6
CONTINUOUS
 62
     7
 10
89.315480044103779
 20
87.468061396490086
 30
0.0
  0
VERTEX
  5
A9A
  8
DATA
  6
CONTINUOUS
 62
     7
 10
89.215703875710204
 20
87.529325974117626
 30
0.0
  0
VERTEX
  5
A9B
  8
DATA
  6
CONTINUOUS
 62
     7
 10
89.11692159360372
 20
87.582993515335005
 30
0.0
  0
VERTEX
  5
A9C
  8
DATA
  6
CONTINUOUS
 62
     7
 10
89.019133197784285
 20
87.629064020142266
 30
0.0
  0
VERTEX
  5
A9D
  8
DATA
  6
CONTINUOUS
 62
     7
 10
88.922338688251926
 20
87.667537488539338
 30
0.0
  0
VERTEX
  5
A9E
  8
DATA
  6
CONTINUOUS
 62
     7
 10
88.826538065006545
 20
87.698413920526349
 30
0.0
  0
VERTEX
  5
A9F
  8
DATA
  6
CONTINUOUS
 62
     7
 10
88.731731328048284
 20
87.721693316103213
 30
0.0
  0
VERTEX
  5
AA0
  8
DATA
  6
CONTINUOUS
 62
     7
 10
88.637918477377013
 20
87.737375675269917
 30
0.0
  0
VERTEX
  5
AA1
  8
DATA
  6
CONTINUOUS
 62
     7
 10
88.545099512992806
 20
87.745460998026502
 30
0.0
  0
VERTEX
  5
AA2
  8
DATA
  6
CONTINUOUS
 62
     7
 10
88.545099512992806
 20
87.745460998026502
 30
0.0
  0
VERTEX
  5
AA3
  8
DATA
  6
CONTINUOUS
 62
     7
 10
88.520449302566703
 20
87.745460998026502
 30
0.0
  0
VERTEX
  5
AA4
  8
DATA
  6
CONTINUOUS
 62
     7
 10
88.520449302566703
 20
87.745460998026502
 30
0.0
  0
VERTEX
  5
AA5
  8
DATA
  6
CONTINUOUS
 62
     7
 10
88.443672237946075
 20
87.745459676510947
 30
0.0
  0
VERTEX
  5
AA6
  8
DATA
  6
CONTINUOUS
 62
     7
 10
88.3439765099629
 20
87.745457960510947
 30
0.0
  0
VERTEX
  5
AA7
  8
DATA
  6
CONTINUOUS
 62
     7
 10
88.22136211861725
 20
87.745455850026389
 30
0.0
  0
VERTEX
  5
AA8
  8
DATA
  6
CONTINUOUS
 62
     7
 10
88.075829063909055
 20
87.745453345057356
 30
0.0
  0
VERTEX
  5
AA9
  8
DATA
  6
CONTINUOUS
 62
     7
 10
87.907377345838299
 20
87.745450445603879
 30
0.0
  0
VERTEX
  5
AAA
  8
DATA
  6
CONTINUOUS
 62
     7
 10
87.716006964405054
 20
87.745447151665886
 30
0.0
  0
VERTEX
  5
AAB
  8
DATA
  6
CONTINUOUS
 62
     7
 10
87.501717919609305
 20
87.745443463243433
 30
0.0
  0
VERTEX
  5
AAC
  8
DATA
  6
CONTINUOUS
 62
     7
 10
87.264510211450983
 20
87.745439380336435
 30
0.0
  0
VERTEX
  5
AAD
  8
DATA
  6
CONTINUOUS
 62
     7
 10
87.014250904853796
 20
87.745435072780566
 30
0.0
  0
VERTEX
  5
AAE
  8
DATA
  6
CONTINUOUS
 62
     7
 10
86.7608070647414
 20
87.745430710411313
 30
0.0
  0
VERTEX
  5
AAF
  8
DATA
  6
CONTINUOUS
 62
     7
 10
86.504178691113793
 20
87.745426293228704
 30
0.0
  0
VERTEX
  5
AB0
  8
DATA
  6
CONTINUOUS
 62
     7
 10
86.244365783970935
 20
87.745421821232739
 30
0.0
  0
VERTEX
  5
AB1
  8
DATA
  6
CONTINUOUS
 62
     7
 10
85.98136834331288
 20
87.745417294423447
 30
0.0
  0
VERTEX
  5
AB2
  8
DATA
  6
CONTINUOUS
 62
     7
 10
85.715186369139573
 20
87.745412712800785
 30
0.0
  0
VERTEX
  5
AB3
  8
DATA
  6
CONTINUOUS
 62
     7
 10
85.445819861451056
 20
87.745408076364782
 30
0.0
  0
VERTEX
  5
AB4
  8
DATA
  6
CONTINUOUS
 62
     7
 10
85.173268820247358
 20
87.745403385115395
 30
0.0
  0
VERTEX
  5
AB5
  8
DATA
  6
CONTINUOUS
 62
     7
 10
84.895934715132555
 20
87.745398611538164
 30
0.0
  0
VERTEX
  5
AB6
  8
DATA
  6
CONTINUOUS
 62
     7
 10
84.612219015710735
 20
87.745393728118557
 30
0.0
  0
VERTEX
  5
AB7
  8
DATA
  6
CONTINUOUS
 62
     7
 10
84.322121721981958
 20
87.745388734856434
 30
0.0
  0
VERTEX
  5
AB8
  8
DATA
  6
CONTINUOUS
 62
     7
 10
84.02564283394625
 20
87.745383631752034
 30
0.0
  0
VERTEX
  5
AB9
  8
DATA
  6
CONTINUOUS
 62
     7
 10
83.722782351603541
 20
87.745378418805174
 30
0.0
  0
VERTEX
  5
ABA
  8
DATA
  6
CONTINUOUS
 62
     7
 10
83.41354027495386
 20
87.745373096015925
 30
0.0
  0
VERTEX
  5
ABB
  8
DATA
  6
CONTINUOUS
 62
     7
 10
83.097916603997234
 20
87.745367663384258
 30
0.0
  0
VERTEX
  5
ABC
  8
DATA
  6
CONTINUOUS
 62
     7
 10
82.775911338733593
 20
87.745362120910187
 30
0.0
  0
VERTEX
  5
ABD
  8
DATA
  6
CONTINUOUS
 62
     7
 10
82.449119831867279
 20
87.745356496053589
 30
0.0
  0
VERTEX
  5
ABE
  8
DATA
  6
CONTINUOUS
 62
     7
 10
82.119137436102505
 20
87.745350816274225
 30
0.0
  0
VERTEX
  5
ABF
  8
DATA
  6
CONTINUOUS
 62
     7
 10
81.785964151439231
 20
87.745345081572125
 30
0.0
  0
VERTEX
  5
AC0
  8
DATA
  6
CONTINUOUS
 62
     7
 10
81.449599977877483
 20
87.745339291947289
 30
0.0
  0
VERTEX
  5
AC1
  8
DATA
  6
CONTINUOUS
 62
     7
 10
81.110044915417319
 20
87.745333447399759
 30
0.0
  0
VERTEX
  5
AC2
  8
DATA
  6
CONTINUOUS
 62
     7
 10
80.767298964058682
 20
87.745327547929463
 30
0.0
  0
VERTEX
  5
AC3
  8
DATA
  6
CONTINUOUS
 62
     7
 10
80.421362123801572
 20
87.745321593536445
 30
0.0
  0
VERTEX
  5
AC4
  8
DATA
  6
CONTINUOUS
 62
     7
 10
80.072234394646003
 20
87.745315584220691
 30
0.0
  0
VERTEX
  5
AC5
  8
DATA
  6
CONTINUOUS
 62
     7
 10
79.721511394083478
 20
87.745309547446553
 30
0.0
  0
VERTEX
  5
AC6
  8
DATA
  6
CONTINUOUS
 62
     7
 10
79.370788739605629
 20
87.745303510678283
 30
0.0
  0
VERTEX
  5
AC7
  8
DATA
  6
CONTINUOUS
 62
     7
 10
79.020066431212413
 20
87.745297473915983
 30
0.0
  0
VERTEX
  5
AC8
  8
DATA
  6
CONTINUOUS
 62
     7
 10
78.669344468903773
 20
87.745291437159636
 30
0.0
  0
VERTEX
  5
AC9
  8
DATA
  6
CONTINUOUS
 62
     7
 10
78.318622852679795
 20
87.745285400409173
 30
0.0
  0
VERTEX
  5
ACA
  8
DATA
  6
CONTINUOUS
 62
     7
 10
77.967901582540449
 20
87.745279363664665
 30
0.0
  0
VERTEX
  5
ACB
  8
DATA
  6
CONTINUOUS
 62
     7
 10
77.617180658485736
 20
87.745273326926082
 30
0.0
  0
VERTEX
  5
ACC
  8
DATA
  6
CONTINUOUS
 62
     7
 10
77.266460080515628
 20
87.745267290193425
 30
0.0
  0
VERTEX
  5
ACD
  8
DATA
  6
CONTINUOUS
 62
     7
 10
76.917334364213431
 20
87.745261280912132
 30
0.0
  0
VERTEX
  5
ACE
  8
DATA
  6
CONTINUOUS
 62
     7
 10
76.571398025162438
 20
87.745255326527584
 30
0.0
  0
VERTEX
  5
ACF
  8
DATA
  6
CONTINUOUS
 62
     7
 10
76.228651063362634
 20
87.745249427039809
 30
0.0
  0
VERTEX
  5
AD0
  8
DATA
  6
CONTINUOUS
 62
     7
 10
75.889093478814004
 20
87.745243582448865
 30
0.0
  0
VERTEX
  5
AD1
  8
DATA
  6
CONTINUOUS
 62
     7
 10
75.552725271516593
 20
87.745237792754651
 30
0.0
  0
VERTEX
  5
AD2
  8
DATA
  6
CONTINUOUS
 62
     7
 10
75.219546441470342
 20
87.745232057957224
 30
0.0
  0
VERTEX
  5
AD3
  8
DATA
  6
CONTINUOUS
 62
     7
 10
74.889556988675281
 20
87.745226378056586
 30
0.0
  0
VERTEX
  5
AD4
  8
DATA
  6
CONTINUOUS
 62
     7
 10
74.562756913131409
 20
87.745220753052706
 30
0.0
  0
VERTEX
  5
AD5
  8
DATA
  6
CONTINUOUS
 62
     7
 10
74.240745275754847
 20
87.745215210469226
 30
0.0
  0
VERTEX
  5
AD6
  8
DATA
  6
CONTINUOUS
 62
     7
 10
73.925121137461701
 20
87.7452097778297
 30
0.0
  0
VERTEX
  5
AD7
  8
DATA
  6
CONTINUOUS
 62
     7
 10
73.615884498251972
 20
87.745204455134186
 30
0.0
  0
VERTEX
  5
AD8
  8
DATA
  6
CONTINUOUS
 62
     7
 10
73.313035358125646
 20
87.745199242382654
 30
0.0
  0
VERTEX
  5
AD9
  8
DATA
  6
CONTINUOUS
 62
     7
 10
73.01657371708275
 20
87.745194139575105
 30
0.0
  0
VERTEX
  5
ADA
  8
DATA
  6
CONTINUOUS
 62
     7
 10
72.726499575123256
 20
87.745189146711525
 30
0.0
  0
VERTEX
  5
ADB
  8
DATA
  6
CONTINUOUS
 62
     7
 10
72.442812932247193
 20
87.745184263791998
 30
0.0
  0
VERTEX
  5
ADC
  8
DATA
  6
CONTINUOUS
 62
     7
 10
72.165513788454547
 20
87.745179490816426
 30
0.0
  0
VERTEX
  5
ADD
  8
DATA
  6
CONTINUOUS
 62
     7
 10
71.89291271856564
 20
87.745174798705804
 30
0.0
  0
VERTEX
  5
ADE
  8
DATA
  6
CONTINUOUS
 62
     7
 10
71.623320297400795
 20
87.7451701583811
 30
0.0
  0
VERTEX
  5
ADF
  8
DATA
  6
CONTINUOUS
 62
     7
 10
71.356736524960013
 20
87.745165569842356
 30
0.0
  0
VERTEX
  5
AE0
  8
DATA
  6
CONTINUOUS
 62
     7
 10
71.093161401243293
 20
87.745161033089587
 30
0.0
  0
VERTEX
  5
AE1
  8
DATA
  6
CONTINUOUS
 62
     7
 10
70.832594926250664
 20
87.745156548122736
 30
0.0
  0
VERTEX
  5
AE2
  8
DATA
  6
CONTINUOUS
 62
     7
 10
70.575037099982083
 20
87.745152114941845
 30
0.0
  0
VERTEX
  5
AE3
  8
DATA
  6
CONTINUOUS
 62
     7
 10
70.320487922437593
 20
87.745147733546858
 30
0.0
  0
VERTEX
  5
AE4
  8
DATA
  6
CONTINUOUS
 62
     7
 10
70.068947393617151
 20
87.745143403937846
 30
0.0
  0
VERTEX
  5
AE5
  8
DATA
  6
CONTINUOUS
 62
     7
 10
69.830657476398969
 20
87.745139302403288
 30
0.0
  0
VERTEX
  5
AE6
  8
DATA
  6
CONTINUOUS
 62
     7
 10
69.615860133661215
 20
87.74513560523171
 30
0.0
  0
VERTEX
  5
AE7
  8
DATA
  6
CONTINUOUS
 62
     7
 10
69.424555365403933
 20
87.74513231242311
 30
0.0
  0
VERTEX
  5
AE8
  8
DATA
  6
CONTINUOUS
 62
     7
 10
69.256743171627079
 20
87.745129423977474
 30
0.0
  0
VERTEX
  5
AE9
  8
DATA
  6
CONTINUOUS
 62
     7
 10
69.112423552330654
 20
87.745126939894803
 30
0.0
  0
VERTEX
  5
AEA
  8
DATA
  6
CONTINUOUS
 62
     7
 10
68.991596507514714
 20
87.745124860175153
 30
0.0
  0
VERTEX
  5
AEB
  8
DATA
  6
CONTINUOUS
 62
     7
 10
68.894262037179203
 20
87.745123184818439
 30
0.0
  0
VERTEX
  5
AEC
  8
DATA
  6
CONTINUOUS
 62
     7
 10
68.820420141324121
 20
87.745121913824704
 30
0.0
  0
VERTEX
  5
AED
  8
DATA
  6
CONTINUOUS
 62
     7
 10
68.820420141324121
 20
87.745121913824704
 30
0.0
  0
VERTEX
  5
AEE
  8
DATA
  6
CONTINUOUS
 62
     7
 10
68.820420141324121
 20
87.745121913824704
 30
0.0
  0
VERTEX
  5
AEF
  8
DATA
  6
CONTINUOUS
 62
     7
 10
68.80845834061364
 20
87.745121913824704
 30
0.0
  0
VERTEX
  5
AF0
  8
DATA
  6
CONTINUOUS
 62
     7
 10
68.685707526891221
 20
87.735052547260054
 30
0.0
  0
VERTEX
  5
AF1
  8
DATA
  6
CONTINUOUS
 62
     7
 10
68.567906322258096
 20
87.715769239009916
 30
0.0
  0
VERTEX
  5
AF2
  8
DATA
  6
CONTINUOUS
 62
     7
 10
68.45505472671428
 20
87.687271989074233
 30
0.0
  0
VERTEX
  5
AF3
  8
DATA
  6
CONTINUOUS
 62
     7
 10
68.347152740259773
 20
87.649560797453063
 30
0.0
  0
VERTEX
  5
AF4
  8
DATA
  6
CONTINUOUS
 62
     7
 10
68.24420036289456
 20
87.602635664146362
 30
0.0
  0
VERTEX
  5
AF5
  8
DATA
  6
CONTINUOUS
 62
     7
 10
68.146197594618641
 20
87.546496589154145
 30
0.0
  0
VERTEX
  5
AF6
  8
DATA
  6
CONTINUOUS
 62
     7
 10
68.053144435432017
 20
87.481143572476441
 30
0.0
  0
VERTEX
  5
AF7
  8
DATA
  6
CONTINUOUS
 62
     7
 10
67.965040885334702
 20
87.406576614113163
 30
0.0
  0
VERTEX
  5
AF8
  8
DATA
  6
CONTINUOUS
 62
     7
 10
67.965040885334702
 20
87.406576614113163
 30
0.0
  0
VERTEX
  5
AF9
  8
DATA
  6
CONTINUOUS
 62
     7
 10
67.957026993539557
 20
87.398916944207215
 30
0.0
  0
SEQEND
  5
AFA
  8
DATA
  6
CONTINUOUS
 62
     7
  0
POLYLINE
  5
391
  8
DATA
  6
CONTINUOUS
 62
     7
 66
     1
 10
0.0
 20
0.0
 30
0.0
 70
   128
  0
VERTEX
  5
AFB
  8
DATA
  6
CONTINUOUS
 62
     7
 10
67.957026993539557
 20
87.398916944207215
 30
0.0
  0
VERTEX
  5
AFC
  8
DATA
  6
CONTINUOUS
 62
     7
 10
67.948909202161076
 20
87.391160393100165
 30
0.0
  0
VERTEX
  5
AFD
  8
DATA
  6
CONTINUOUS
 62
     7
 10
67.864566675178907
 20
87.299633395578866
 30
0.0
  0
VERTEX
  5
AFE
  8
DATA
  6
CONTINUOUS
 62
     7
 10
67.790812418187826
 20
87.202693101211665
 30
0.0
  0
VERTEX
  5
AFF
  8
DATA
  6
CONTINUOUS
 62
     7
 10
67.72764643118785
 20
87.100339509998619
 30
0.0
  0
VERTEX
  5
B00
  8
DATA
  6
CONTINUOUS
 62
     7
 10
67.675068714178963
 20
86.992572621939701
 30
0.0
  0
VERTEX
  5
B01
  8
DATA
  6
CONTINUOUS
 62
     7
 10
67.633079267161179
 20
86.879392437034909
 30
0.0
  0
VERTEX
  5
B02
  8
DATA
  6
CONTINUOUS
 62
     7
 10
67.601678090134484
 20
86.760798955284216
 30
0.0
  0
VERTEX
  5
B03
  8
DATA
  6
CONTINUOUS
 62
     7
 10
67.580865183098894
 20
86.63679217668772
 30
0.0
  0
VERTEX
  5
B04
  8
DATA
  6
CONTINUOUS
 62
     7
 10
67.570640546054392
 20
86.507372101245295
 30
0.0
  0
VERTEX
  5
B05
  8
DATA
  6
CONTINUOUS
 62
     7
 10
67.570640546054392
 20
86.507372101245295
 30
0.0
  0
VERTEX
  5
B06
  8
DATA
  6
CONTINUOUS
 62
     7
 10
67.570640546054392
 20
86.495257547504707
 30
0.0
  0
VERTEX
  5
B07
  8
DATA
  6
CONTINUOUS
 62
     7
 10
67.570640546054392
 20
86.495257547504707
 30
0.0
  0
VERTEX
  5
B08
  8
DATA
  6
CONTINUOUS
 62
     7
 10
67.570640546054392
 20
86.464887726431584
 30
0.0
  0
VERTEX
  5
B09
  8
DATA
  6
CONTINUOUS
 62
     7
 10
67.570640546054392
 20
86.421161890124552
 30
0.0
  0
VERTEX
  5
B0A
  8
DATA
  6
CONTINUOUS
 62
     7
 10
67.570640546054392
 20
86.36408003858358
 30
0.0
  0
VERTEX
  5
B0B
  8
DATA
  6
CONTINUOUS
 62
     7
 10
67.570640546054392
 20
86.293642171808656
 30
0.0
  0
VERTEX
  5
B0C
  8
DATA
  6
CONTINUOUS
 62
     7
 10
67.570640546054392
 20
86.209848289799808
 30
0.0
  0
VERTEX
  5
B0D
  8
DATA
  6
CONTINUOUS
 62
     7
 10
67.570640546054392
 20
86.112698392557064
 30
0.0
  0
VERTEX
  5
B0E
  8
DATA
  6
CONTINUOUS
 62
     7
 10
67.570640546054392
 20
86.002192480080339
 30
0.0
  0
VERTEX
  5
B0F
  8
DATA
  6
CONTINUOUS
 62
     7
 10
67.570640546054392
 20
85.878330552369704
 30
0.0
  0
VERTEX
  5
B10
  8
DATA
  6
CONTINUOUS
 62
     7
 10
67.570640546054392
 20
85.744505338553324
 30
0.0
  0
VERTEX
  5
B11
  8
DATA
  6
CONTINUOUS
 62
     7
 10
67.570640546054392
 20
85.604109567759437
 30
0.0
  0
VERTEX
  5
B12
  8
DATA
  6
CONTINUOUS
 62
     7
 10
67.570640546054392
 20
85.457143239988113
 30
0.0
  0
VERTEX
  5
B13
  8
DATA
  6
CONTINUOUS
 62
     7
 10
67.570640546054392
 20
85.303606355239225
 30
0.0
  0
VERTEX
  5
B14
  8
DATA
  6
CONTINUOUS
 62
     7
 10
67.570640546054392
 20
85.143498913512829
 30
0.0
  0
VERTEX
  5
B15
  8
DATA
  6
CONTINUOUS
 62
     7
 10
67.570640546054392
 20
84.976820914808954
 30
0.0
  0
VERTEX
  5
B16
  8
DATA
  6
CONTINUOUS
 62
     7
 10
67.570640546054392
 20
84.803572359127614
 30
0.0
  0
VERTEX
  5
B17
  8
DATA
  6
CONTINUOUS
 62
     7
 10
67.570640546054392
 20
84.623753246468695
 30
0.0
  0
VERTEX
  5
B18
  8
DATA
  6
CONTINUOUS
 62
     7
 10
67.570640546054392
 20
84.439536813398476
 30
0.0
  0
VERTEX
  5
B19
  8
DATA
  6
CONTINUOUS
 62
     7
 10
67.570640546054392
 20
84.253096296483008
 30
0.0
  0
VERTEX
  5
B1A
  8
DATA
  6
CONTINUOUS
 62
     7
 10
67.570640546054392
 20
84.064431695722377
 30
0.0
  0
VERTEX
  5
B1B
  8
DATA
  6
CONTINUOUS
 62
     7
 10
67.570640546054392
 20
83.873543011116539
 30
0.0
  0
VERTEX
  5
B1C
  8
DATA
  6
CONTINUOUS
 62
     7
 10
67.570640546054392
 20
83.68043024266548
 30
0.0
  0
VERTEX
  5
B1D
  8
DATA
  6
CONTINUOUS
 62
     7
 10
67.570640546054392
 20
83.485093390369215
 30
0.0
  0
VERTEX
  5
B1E
  8
DATA
  6
CONTINUOUS
 62
     7
 10
67.570640546054392
 20
83.287532454227787
 30
0.0
  0
VERTEX
  5
B1F
  8
DATA
  6
CONTINUOUS
 62
     7
 10
67.570640546054392
 20
83.087747434241095
 30
0.0
  0
VERTEX
  5
B20
  8
DATA
  6
CONTINUOUS
 62
     7
 10
67.570640546054392
 20
82.883122773551236
 30
0.0
  0
VERTEX
  5
B21
  8
DATA
  6
CONTINUOUS
 62
     7
 10
67.570640546054392
 20
82.671042915300191
 30
0.0
  0
VERTEX
  5
B22
  8
DATA
  6
CONTINUOUS
 62
     7
 10
67.570640546054392
 20
82.451507859487918
 30
0.0
  0
VERTEX
  5
B23
  8
DATA
  6
CONTINUOUS
 62
     7
 10
67.570640546054392
 20
82.224517606114517
 30
0.0
  0
VERTEX
  5
B24
  8
DATA
  6
CONTINUOUS
 62
     7
 10
67.570640546054392
 20
81.990072155179874
 30
0.0
  0
VERTEX
  5
B25
  8
DATA
  6
CONTINUOUS
 62
     7
 10
67.570640546054392
 20
81.748171506684074
 30
0.0
  0
VERTEX
  5
B26
  8
DATA
  6
CONTINUOUS
 62
     7
 10
67.570640546054392
 20
81.498815660627059
 30
0.0
  0
VERTEX
  5
B27
  8
DATA
  6
CONTINUOUS
 62
     7
 10
67.570640546054392
 20
81.242004617008845
 30
0.0
  0
VERTEX
  5
B28
  8
DATA
  6
CONTINUOUS
 62
     7
 10
67.570640546054392
 20
80.989411217629893
 30
0.0
  0
VERTEX
  5
B29
  8
DATA
  6
CONTINUOUS
 62
     7
 10
67.570640546054392
 20
80.752708304290636
 30
0.0
  0
VERTEX
  5
B2A
  8
DATA
  6
CONTINUOUS
 62
     7
 10
67.570640546054392
 20
80.53189587699103
 30
0.0
  0
VERTEX
  5
B2B
  8
DATA
  6
CONTINUOUS
 62
     7
 10
67.570640546054392
 20
80.326973935731075
 30
0.0
  0
VERTEX
  5
B2C
  8
DATA
  6
CONTINUOUS
 62
     7
 10
67.570640546054392
 20
80.137942480510816
 30
0.0
  0
VERTEX
  5
B2D
  8
DATA
  6
CONTINUOUS
 62
     7
 10
67.570640546054392
 20
79.964801511330222
 30
0.0
  0
VERTEX
  5
B2E
  8
DATA
  6
CONTINUOUS
 62
     7
 10
67.570640546054392
 20
79.807551028189295
 30
0.0
  0
VERTEX
  5
B2F
  8
DATA
  6
CONTINUOUS
 62
     7
 10
67.570640546054392
 20
79.666191031088033
 30
0.0
  0
VERTEX
  5
B30
  8
DATA
  6
CONTINUOUS
 62
     7
 10
67.570640546054392
 20
79.537694751326001
 30
0.0
  0
VERTEX
  5
B31
  8
DATA
  6
CONTINUOUS
 62
     7
 10
67.570640546054392
 20
79.419035420202732
 30
0.0
  0
VERTEX
  5
B32
  8
DATA
  6
CONTINUOUS
 62
     7
 10
67.570640546054392
 20
79.310213037718242
 30
0.0
  0
VERTEX
  5
B33
  8
DATA
  6
CONTINUOUS
 62
     7
 10
67.570640546054392
 20
79.211227603872473
 30
0.0
  0
VERTEX
  5
B34
  8
DATA
  6
CONTINUOUS
 62
     7
 10
67.570640546054392
 20
79.122079118665511
 30
0.0
  0
VERTEX
  5
B35
  8
DATA
  6
CONTINUOUS
 62
     7
 10
67.570640546054392
 20
79.042767582097312
 30
0.0
  0
VERTEX
  5
B36
  8
DATA
  6
CONTINUOUS
 62
     7
 10
67.570640546054392
 20
78.973292994167863
 30
0.0
  0
VERTEX
  5
B37
  8
DATA
  6
CONTINUOUS
 62
     7
 10
67.570640546054392
 20
78.91365535487715
 30
0.0
  0
VERTEX
  5
B38
  8
DATA
  6
CONTINUOUS
 62
     7
 10
67.570640546054392
 20
78.861392122357316
 30
0.0
  0
VERTEX
  5
B39
  8
DATA
  6
CONTINUOUS
 62
     7
 10
67.570640546054392
 20
78.814040754740461
 30
0.0
  0
VERTEX
  5
B3A
  8
DATA
  6
CONTINUOUS
 62
     7
 10
67.570640546054392
 20
78.771601252026528
 30
0.0
  0
VERTEX
  5
B3B
  8
DATA
  6
CONTINUOUS
 62
     7
 10
67.570640546054392
 20
78.734073614215561
 30
0.0
  0
VERTEX
  5
B3C
  8
DATA
  6
CONTINUOUS
 62
     7
 10
67.570640546054392
 20
78.701457841307587
 30
0.0
  0
VERTEX
  5
B3D
  8
DATA
  6
CONTINUOUS
 62
     7
 10
67.570640546054392
 20
78.673753933302535
 30
0.0
  0
VERTEX
  5
B3E
  8
DATA
  6
CONTINUOUS
 62
     7
 10
67.570640546054392
 20
78.650961890200449
 30
0.0
  0
VERTEX
  5
B3F
  8
DATA
  6
CONTINUOUS
 62
     7
 10
67.570640546054392
 20
78.633081712001314
 30
0.0
  0
VERTEX
  5
B40
  8
DATA
  6
CONTINUOUS
 62
     7
 10
67.570640546054392
 20
78.633081712001314
 30
0.0
  0
VERTEX
  5
B41
  8
DATA
  6
CONTINUOUS
 62
     7
 10
67.570640546054392
 20
78.633081712001314
 30
0.0
  0
VERTEX
  5
B42
  8
DATA
  6
CONTINUOUS
 62
     7
 10
67.570640546054392
 20
78.621730097713808
 30
0.0
  0
VERTEX
  5
B43
  8
DATA
  6
CONTINUOUS
 62
     7
 10
67.580004704827829
 20
78.500195044632591
 30
0.0
  0
VERTEX
  5
B44
  8
DATA
  6
CONTINUOUS
 62
     7
 10
67.599005903075295
 20
78.383045476635317
 30
0.0
  0
VERTEX
  5
B45
  8
DATA
  6
CONTINUOUS
 62
     7
 10
67.62764414079686
 20
78.270281393722001
 30
0.0
  0
VERTEX
  5
B46
  8
DATA
  6
CONTINUOUS
 62
     7
 10
67.665919417992512
 20
78.161902795892615
 30
0.0
  0
VERTEX
  5
B47
  8
DATA
  6
CONTINUOUS
 62
     7
 10
67.713831734662222
 20
78.057909683147187
 30
0.0
  0
VERTEX
  5
B48
  8
DATA
  6
CONTINUOUS
 62
     7
 10
67.771381090806031
 20
77.958302055485703
 30
0.0
  0
VERTEX
  5
B49
  8
DATA
  6
CONTINUOUS
 62
     7
 10
67.838567486423884
 20
77.863079912908148
 30
0.0
  0
VERTEX
  5
B4A
  8
DATA
  6
CONTINUOUS
 62
     7
 10
67.915390921515851
 20
77.772243255414537
 30
0.0
  0
VERTEX
  5
B4B
  8
DATA
  6
CONTINUOUS
 62
     7
 10
67.915390921515851
 20
77.772243255414537
 30
0.0
  0
VERTEX
  5
B4C
  8
DATA
  6
CONTINUOUS
 62
     7
 10
67.922864260249469
 20
77.764347988042729
 30
0.0
  0
VERTEX
  5
B4D
  8
DATA
  6
CONTINUOUS
 62
     7
 10
67.922864260249469
 20
77.764347988042729
 30
0.0
  0
VERTEX
  5
B4E
  8
DATA
  6
CONTINUOUS
 62
     7
 10
67.933646599088704
 20
77.752698104699732
 30
0.0
  0
VERTEX
  5
B4F
  8
DATA
  6
CONTINUOUS
 62
     7
 10
67.949072230429522
 20
77.736031330607815
 30
0.0
  0
VERTEX
  5
B50
  8
DATA
  6
CONTINUOUS
 62
     7
 10
67.969141154271853
 20
77.714347665766937
 30
0.0
  0
VERTEX
  5
B51
  8
DATA
  6
CONTINUOUS
 62
     7
 10
67.99385337061571
 20
77.687647110177153
 30
0.0
  0
VERTEX
  5
B52
  8
DATA
  6
CONTINUOUS
 62
     7
 10
68.023208879461123
 20
77.65592966383845
 30
0.0
  0
VERTEX
  5
B53
  8
DATA
  6
CONTINUOUS
 62
     7
 10
68.057207680808062
 20
77.619195326750841
 30
0.0
  0
VERTEX
  5
B54
  8
DATA
  6
CONTINUOUS
 62
     7
 10
68.095849774656557
 20
77.577444098914285
 30
0.0
  0
VERTEX
  5
B55
  8
DATA
  6
CONTINUOUS
 62
     7
 10
68.139135161006578
 20
77.530675980328851
 30
0.0
  0
VERTEX
  5
B56
  8
DATA
  6
CONTINUOUS
 62
     7
 10
68.189601276768585
 20
77.476149372493623
 30
0.0
  0
VERTEX
  5
B57
  8
DATA
  6
CONTINUOUS
 62
     7
 10
68.24978555885302
 20
77.411122676907794
 30
0.0
  0
VERTEX
  5
B58
  8
DATA
  6
CONTINUOUS
 62
     7
 10
68.319688007259899
 20
77.335595893571352
 30
0.0
  0
VERTEX
  5
B59
  8
DATA
  6
CONTINUOUS
 62
     7
 10
68.39930862198915
 20
77.249569022484295
 30
0.0
  0
VERTEX
  5
B5A
  8
DATA
  6
CONTINUOUS
 62
     7
 10
68.488647403040858
 20
77.153042063646623
 30
0.0
  0
VERTEX
  5
B5B
  8
DATA
  6
CONTINUOUS
 62
     7
 10
68.587704350414967
 20
77.046015017058338
 30
0.0
  0
VERTEX
  5
B5C
  8
DATA
  6
CONTINUOUS
 62
     7
 10
68.696479464111533
 20
76.928487882719494
 30
0.0
  0
VERTEX
  5
B5D
  8
DATA
  6
CONTINUOUS
 62
     7
 10
68.814972744130529
 20
76.800460660629994
 30
0.0
  0
VERTEX
  5
B5E
  8
DATA
  6
CONTINUOUS
 62
     7
 10
68.939813469513979
 20
76.665575279181226
 30
0.0
  0
VERTEX
  5
B5F
  8
DATA
  6
CONTINUOUS
 62
     7
 10
69.067630919303923
 20
76.52747366676455
 30
0.0
  0
VERTEX
  5
B60
  8
DATA
  6
CONTINUOUS
 62
     7
 10
69.198425093500362
 20
76.386155823379937
 30
0.0
  0
VERTEX
  5
B61
  8
DATA
  6
CONTINUOUS
 62
     7
 10
69.332195992103323
 20
76.241621749027402
 30
0.0
  0
VERTEX
  5
B62
  8
DATA
  6
CONTINUOUS
 62
     7
 10
69.468943615112778
 20
76.093871443706902
 30
0.0
  0
VERTEX
  5
B63
  8
DATA
  6
CONTINUOUS
 62
     7
 10
69.608667962528713
 20
75.942904907418523
 30
0.0
  0
VERTEX
  5
B64
  8
DATA
  6
CONTINUOUS
 62
     7
 10
69.751369034351171
 20
75.788722140162193
 30
0.0
  0
VERTEX
  5
B65
  8
DATA
  6
CONTINUOUS
 62
     7
 10
69.897046830580095
 20
75.631323141937926
 30
0.0
  0
VERTEX
  5
B66
  8
DATA
  6
CONTINUOUS
 62
     7
 10
70.043329006855146
 20
75.473271135388032
 30
0.0
  0
VERTEX
  5
B67
  8
DATA
  6
CONTINUOUS
 62
     7
 10
70.187843218815857
 20
75.317129343154662
 30
0.0
  0
VERTEX
  5
B68
  8
DATA
  6
CONTINUOUS
 62
     7
 10
70.330589466462243
 20
75.162897765237901
 30
0.0
  0
VERTEX
  5
B69
  8
DATA
  6
CONTINUOUS
 62
     7
 10
70.471567749794289
 20
75.010576401637707
 30
0.0
  0
VERTEX
  5
B6A
  8
DATA
  6
CONTINUOUS
 62
     7
 10
70.610778068812053
 20
74.860165252354093
 30
0.0
  0
VERTEX
  5
B6B
  8
DATA
  6
CONTINUOUS
 62
     7
 10
70.748220423515448
 20
74.711664317387061
 30
0.0
  0
VERTEX
  5
B6C
  8
DATA
  6
CONTINUOUS
 62
     7
 10
70.883894813904533
 20
74.565073596736624
 30
0.0
  0
VERTEX
  5
B6D
  8
DATA
  6
CONTINUOUS
 62
     7
 10
71.017801239979292
 20
74.42039309040274
 30
0.0
  0
VERTEX
  5
B6E
  8
DATA
  6
CONTINUOUS
 62
     7
 10
71.146867287916962
 20
74.280942417918183
 30
0.0
  0
VERTEX
  5
B6F
  8
DATA
  6
CONTINUOUS
 62
     7
 10
71.268020543894721
 20
74.1500411988156
 30
0.0
  0
VERTEX
  5
B70
  8
DATA
  6
CONTINUOUS
 62
     7
 10
71.381261007912599
 20
74.02768943309502
 30
0.0
  0
VERTEX
  5
B71
  8
DATA
  6
CONTINUOUS
 62
     7
 10
71.486588679970595
 20
73.913887120756456
 30
0.0
  0
VERTEX
  5
B72
  8
DATA
  6
CONTINUOUS
 62
     7
 10
71.584003560068709
 20
73.808634261799881
 30
0.0
  0
VERTEX
  5
B73
  8
DATA
  6
CONTINUOUS
 62
     7
 10
71.673505648206941
 20
73.711930856225308
 30
0.0
  0
VERTEX
  5
B74
  8
DATA
  6
CONTINUOUS
 62
     7
 10
71.755094944385277
 20
73.623776904032724
 30
0.0
  0
VERTEX
  5
B75
  8
DATA
  6
CONTINUOUS
 62
     7
 10
71.828771448603732
 20
73.54417240522217
 30
0.0
  0
VERTEX
  5
B76
  8
DATA
  6
CONTINUOUS
 62
     7
 10
71.894892004623131
 20
73.472731804465781
 30
0.0
  0
VERTEX
  5
B77
  8
DATA
  6
CONTINUOUS
 62
     7
 10
71.953813456204216
 20
73.409069546435731
 30
0.0
  0
VERTEX
  5
B78
  8
DATA
  6
CONTINUOUS
 62
     7
 10
72.005535803347044
 20
73.353185631132035
 30
0.0
  0
VERTEX
  5
B79
  8
DATA
  6
CONTINUOUS
 62
     7
 10
72.050059046051629
 20
73.305080058554694
 30
0.0
  0
VERTEX
  5
B7A
  8
DATA
  6
CONTINUOUS
 62
     7
 10
72.0873831843179
 20
73.264752828703706
 30
0.0
  0
VERTEX
  5
B7B
  8
DATA
  6
CONTINUOUS
 62
     7
 10
72.117508218145929
 20
73.232203941579058
 30
0.0
  0
VERTEX
  5
B7C
  8
DATA
  6
CONTINUOUS
 62
     7
 10
72.140434147535643
 20
73.20743339718075
 30
0.0
  0
VERTEX
  5
B7D
  8
DATA
  6
CONTINUOUS
 62
     7
 10
72.156160972487157
 20
73.190441195508811
 30
0.0
  0
VERTEX
  5
B7E
  8
DATA
  6
CONTINUOUS
 62
     7
 10
72.156160972487157
 20
73.190441195508811
 30
0.0
  0
VERTEX
  5
B7F
  8
DATA
  6
CONTINUOUS
 62
     7
 10
72.156160972487157
 20
73.190441195508811
 30
0.0
  0
VERTEX
  5
B80
  8
DATA
  6
CONTINUOUS
 62
     7
 10
72.164975235108258
 20
73.181141425962721
 30
0.0
  0
VERTEX
  5
B81
  8
DATA
  6
CONTINUOUS
 62
     7
 10
72.270260826018983
 20
73.084167419476302
 30
0.0
  0
VERTEX
  5
B82
  8
DATA
  6
CONTINUOUS
 62
     7
 10
72.382435765878455
 20
72.999337834672517
 30
0.0
  0
VERTEX
  5
B83
  8
DATA
  6
CONTINUOUS
 62
     7
 10
72.501500054686744
 20
72.926652671551366
 30
0.0
  0
VERTEX
  5
B84
  8
DATA
  6
CONTINUOUS
 62
     7
 10
72.627453692443808
 20
72.866111930112908
 30
0.0
  0
VERTEX
  5
B85
  8
DATA
  6
CONTINUOUS
 62
     7
 10
72.760296679149661
 20
72.81771561035707
 30
0.0
  0
VERTEX
  5
B86
  8
DATA
  6
CONTINUOUS
 62
     7
 10
72.900029014804304
 20
72.781463712283866
 30
0.0
  0
VERTEX
  5
B87
  8
DATA
  6
CONTINUOUS
 62
     7
 10
73.046650699407763
 20
72.757356235893312
 30
0.0
  0
VERTEX
  5
B88
  8
DATA
  6
CONTINUOUS
 62
     7
 10
73.200161732959998
 20
72.74539318118542
 30
0.0
  0
VERTEX
  5
B89
  8
DATA
  6
CONTINUOUS
 62
     7
 10
73.200161732959998
 20
72.74539318118542
 30
0.0
  0
VERTEX
  5
B8A
  8
DATA
  6
CONTINUOUS
 62
     7
 10
73.214527536072083
 20
72.74539318118542
 30
0.0
  0
VERTEX
  5
B8B
  8
DATA
  6
CONTINUOUS
 62
     7
 10
73.214527536072083
 20
72.74539318118542
 30
0.0
  0
VERTEX
  5
B8C
  8
DATA
  6
CONTINUOUS
 62
     7
 10
73.253267597565809
 20
72.745393783084978
 30
0.0
  0
VERTEX
  5
B8D
  8
DATA
  6
CONTINUOUS
 62
     7
 10
73.303722091257981
 20
72.745394566990257
 30
0.0
  0
VERTEX
  5
B8E
  8
DATA
  6
CONTINUOUS
 62
     7
 10
73.365891017148627
 20
72.745395532901256
 30
0.0
  0
VERTEX
  5
B8F
  8
DATA
  6
CONTINUOUS
 62
     7
 10
73.439774375237732
 20
72.745396680817919
 30
0.0
  0
VERTEX
  5
B90
  8
DATA
  6
CONTINUOUS
 62
     7
 10
73.525372165525241
 20
72.74539801074026
 30
0.0
  0
VERTEX
  5
B91
  8
DATA
  6
CONTINUOUS
 62
     7
 10
73.622684388011237
 20
72.745399522668293
 30
0.0
  0
VERTEX
  5
B92
  8
DATA
  6
CONTINUOUS
 62
     7
 10
73.731711042695679
 20
72.745401216602005
 30
0.0
  0
VERTEX
  5
B93
  8
DATA
  6
CONTINUOUS
 62
     7
 10
73.85245212957858
 20
72.745403092541423
 30
0.0
  0
VERTEX
  5
B94
  8
DATA
  6
CONTINUOUS
 62
     7
 10
73.979920740962271
 20
72.745405073005543
 30
0.0
  0
VERTEX
  5
B95
  8
DATA
  6
CONTINUOUS
 62
     7
 10
74.109129969149123
 20
72.745407080513417
 30
0.0
  0
VERTEX
  5
B96
  8
DATA
  6
CONTINUOUS
 62
     7
 10
74.240079814139136
 20
72.745409115065044
 30
0.0
  0
VERTEX
  5
B97
  8
DATA
  6
CONTINUOUS
 62
     7
 10
74.372770275932297
 20
72.745411176660369
 30
0.0
  0
VERTEX
  5
B98
  8
DATA
  6
CONTINUOUS
 62
     7
 10
74.507201354528632
 20
72.745413265299504
 30
0.0
  0
VERTEX
  5
B99
  8
DATA
  6
CONTINUOUS
 62
     7
 10
74.643373049928115
 20
72.745415380982337
 30
0.0
  0
VERTEX
  5
B9A
  8
DATA
  6
CONTINUOUS
 62
     7
 10
74.78128536213076
 20
72.745417523708923
 30
0.0
  0
VERTEX
  5
B9B
  8
DATA
  6
CONTINUOUS
 62
     7
 10
74.920938291136594
 20
72.745419693479306
 30
0.0
  0
VERTEX
  5
B9C
  8
DATA
  6
CONTINUOUS
 62
     7
 10
75.068703614477798
 20
72.745421989290904
 30
0.0
  0
VERTEX
  5
B9D
  8
DATA
  6
CONTINUOUS
 62
     7
 10
75.230953109686624
 20
72.745424510141319
 30
0.0
  0
VERTEX
  5
B9E
  8
DATA
  6
CONTINUOUS
 62
     7
 10
75.407686776763072
 20
72.745427256030581
 30
0.0
  0
VERTEX
  5
B9F
  8
DATA
  6
CONTINUOUS
 62
     7
 10
75.598904615707127
 20
72.745430226958632
 30
0.0
  0
VERTEX
  5
BA0
  8
DATA
  6
CONTINUOUS
 62
     7
 10
75.804606626518833
 20
72.745433422925473
 30
0.0
  0
VERTEX
  5
BA1
  8
DATA
  6
CONTINUOUS
 62
     7
 10
76.024792809198146
 20
72.745436843931145
 30
0.0
  0
VERTEX
  5
BA2
  8
DATA
  6
CONTINUOUS
 62
     7
 10
76.259463163745096
 20
72.745440489975621
 30
0.0
  0
VERTEX
  5
BA3
  8
DATA
  6
CONTINUOUS
 62
     7
 10
76.508617690159653
 20
72.745444361058901
 30
0.0
  0
VERTEX
  5
BA4
  8
DATA
  6
CONTINUOUS
 62
     7
 10
76.766615539158863
 20
72.745448369539815
 30
0.0
  0
VERTEX
  5
BA5
  8
DATA
  6
CONTINUOUS
 62
     7
 10
77.027815861459729
 20
72.74545242777711
 30
0.0
  0
VERTEX
  5
BA6
  8
DATA
  6
CONTINUOUS
 62
     7
 10
77.292218657062307
 20
72.745456535770813
 30
0.0
  0
VERTEX
  5
BA7
  8
DATA
  6
CONTINUOUS
 62
     7
 10
77.559823925966555
 20
72.74546069352094
 30
0.0
  0
VERTEX
  5
BA8
  8
DATA
  6
CONTINUOUS
 62
     7
 10
77.830631668172487
 20
72.745464901027503
 30
0.0
  0
VERTEX
  5
BA9
  8
DATA
  6
CONTINUOUS
 62
     7
 10
78.104641883680102
 20
72.745469158290433
 30
0.0
  0
VERTEX
  5
BAA
  8
DATA
  6
CONTINUOUS
 62
     7
 10
78.381854572489374
 20
72.7454734653098
 30
0.0
  0
VERTEX
  5
BAB
  8
DATA
  6
CONTINUOUS
 62
     7
 10
78.662269734600343
 20
72.745477822085562
 30
0.0
  0
VERTEX
  5
BAC
  8
DATA
  6
CONTINUOUS
 62
     7
 10
78.943549546076483
 20
72.745482192295285
 30
0.0
  0
VERTEX
  5
BAD
  8
DATA
  6
CONTINUOUS
 62
     7
 10
79.223356182981263
 20
72.745486539616451
 30
0.0
  0
VERTEX
  5
BAE
  8
DATA
  6
CONTINUOUS
 62
     7
 10
79.501689645314727
 20
72.745490864049088
 30
0.0
  0
VERTEX
  5
BAF
  8
DATA
  6
CONTINUOUS
 62
     7
 10
79.77854993307686
 20
72.745495165593184
 30
0.0
  0
VERTEX
  5
BB0
  8
DATA
  6
CONTINUOUS
 62
     7
 10
80.053937046267649
 20
72.74549944424875
 30
0.0
  0
VERTEX
  5
BB1
  8
DATA
  6
CONTINUOUS
 62
     7
 10
80.327850984887135
 20
72.745503700015789
 30
0.0
  0
VERTEX
  5
BB2
  8
DATA
  6
CONTINUOUS
 62
     7
 10
80.600291748935305
 20
72.74550793289427
 30
0.0
  0
VERTEX
  5
BB3
  8
DATA
  6
CONTINUOUS
 62
     7
 10
80.871259338412088
 20
72.745512142884223
 30
0.0
  0
VERTEX
  5
BB4
  8
DATA
  6
CONTINUOUS
 62
     7
 10
81.136174143074939
 20
72.745516258832794
 30
0.0
  0
VERTEX
  5
BB5
  8
DATA
  6
CONTINUOUS
 62
     7
 10
81.390456552681243
 20
72.74552020958717
 30
0.0
  0
VERTEX
  5
BB6
  8
DATA
  6
CONTINUOUS
 62
     7
 10
81.634106567230987
 20
72.745523995147323
 30
0.0
  0
VERTEX
  5
BB7
  8
DATA
  6
CONTINUOUS
 62
     7
 10
81.867124186724183
 20
72.745527615513282
 30
0.0
  0
VERTEX
  5
BB8
  8
DATA
  6
CONTINUOUS
 62
     7
 10
82.089509411160776
 20
72.74553107068499
 30
0.0
  0
VERTEX
  5
BB9
  8
DATA
  6
CONTINUOUS
 62
     7
 10
82.301262240540794
 20
72.745534360662504
 30
0.0
  0
VERTEX
  5
BBA
  8
DATA
  6
CONTINUOUS
 62
     7
 10
82.502382674864279
 20
72.745537485445809
 30
0.0
  0
VERTEX
  5
BBB
  8
DATA
  6
CONTINUOUS
 62
     7
 10
82.692870714131203
 20
72.745540445034905
 30
0.0
  0
VERTEX
  5
BBC
  8
DATA
  6
CONTINUOUS
 62
     7
 10
82.871216002431026
 20
72.745543215963551
 30
0.0
  0
VERTEX
  5
BBD
  8
DATA
  6
CONTINUOUS
 62
     7
 10
83.035908183853138
 20
72.745545774765631
 30
0.0
  0
VERTEX
  5
BBE
  8
DATA
  6
CONTINUOUS
 62
     7
 10
83.186947258397709
 20
72.745548121441104
 30
0.0
  0
VERTEX
  5
BBF
  8
DATA
  6
CONTINUOUS
 62
     7
 10
83.324333226064581
 20
72.745550255989954
 30
0.0
  0
VERTEX
  5
BC0
  8
DATA
  6
CONTINUOUS
 62
     7
 10
83.448066086853814
 20
72.745552178412197
 30
0.0
  0
VERTEX
  5
BC1
  8
DATA
  6
CONTINUOUS
 62
     7
 10
83.558145840765405
 20
72.74555388870786
 30
0.0
  0
VERTEX
  5
BC2
  8
DATA
  6
CONTINUOUS
 62
     7
 10
83.654572487799342
 20
72.745555386876902
 30
0.0
  0
VERTEX
  5
BC3
  8
DATA
  6
CONTINUOUS
 62
     7
 10
83.737346027955681
 20
72.745556672919363
 30
0.0
  0
VERTEX
  5
BC4
  8
DATA
  6
CONTINUOUS
 62
     7
 10
83.809884324694636
 20
72.745557799938084
 30
0.0
  0
VERTEX
  5
BC5
  8
DATA
  6
CONTINUOUS
 62
     7
 10
83.875605241476521
 20
72.745558821035971
 30
0.0
  0
VERTEX
  5
BC6
  8
DATA
  6
CONTINUOUS
 62
     7
 10
83.934508778301307
 20
72.745559736213025
 30
0.0
  0
VERTEX
  5
BC7
  8
DATA
  6
CONTINUOUS
 62
     7
 10
83.986594935169066
 20
72.74556054546926
 30
0.0
  0
VERTEX
  5
BC8
  8
DATA
  6
CONTINUOUS
 62
     7
 10
84.031863712079769
 20
72.745561248804677
 30
0.0
  0
VERTEX
  5
BC9
  8
DATA
  6
CONTINUOUS
 62
     7
 10
84.070315109033373
 20
72.74556184621926
 30
0.0
  0
VERTEX
  5
BCA
  8
DATA
  6
CONTINUOUS
 62
     7
 10
84.101949126029922
 20
72.745562337713011
 30
0.0
  0
VERTEX
  5
BCB
  8
DATA
  6
CONTINUOUS
 62
     7
 10
84.126765763069372
 20
72.745562723285957
 30
0.0
  0
VERTEX
  5
BCC
  8
DATA
  6
CONTINUOUS
 62
     7
 10
84.126765763069372
 20
72.745562723285957
 30
0.0
  0
VERTEX
  5
BCD
  8
DATA
  6
CONTINUOUS
 62
     7
 10
84.126765763069372
 20
72.745562723285957
 30
0.0
  0
VERTEX
  5
BCE
  8
DATA
  6
CONTINUOUS
 62
     7
 10
84.133340336008061
 20
72.745562723285957
 30
0.0
  0
VERTEX
  5
BCF
  8
DATA
  6
CONTINUOUS
 62
     7
 10
84.203686822089523
 20
72.747941341569856
 30
0.0
  0
VERTEX
  5
BD0
  8
DATA
  6
CONTINUOUS
 62
     7
 10
84.272929426538809
 20
72.753181816634935
 30
0.0
  0
VERTEX
  5
BD1
  8
DATA
  6
CONTINUOUS
 62
     7
 10
84.341068149355934
 20
72.761284148481181
 30
0.0
  0
VERTEX
  5
BD2
  8
DATA
  6
CONTINUOUS
 62
     7
 10
84.408102990540939
 20
72.772248337108621
 30
0.0
  0
VERTEX
  5
BD3
  8
DATA
  6
CONTINUOUS
 62
     7
 10
84.474033950093784
 20
72.786074382517256
 30
0.0
  0
VERTEX
  5
BD4
  8
DATA
  6
CONTINUOUS
 62
     7
 10
84.538861028014523
 20
72.802762284707057
 30
0.0
  0
VERTEX
  5
BD5
  8
DATA
  6
CONTINUOUS
 62
     7
 10
84.602584224303044
 20
72.822312043678011
 30
0.0
  0
VERTEX
  5
BD6
  8
DATA
  6
CONTINUOUS
 62
     7
 10
84.66520353895946
 20
72.844723659430187
 30
0.0
  0
VERTEX
  5
BD7
  8
DATA
  6
CONTINUOUS
 62
     7
 10
84.66520353895946
 20
72.844723659430187
 30
0.0
  0
VERTEX
  5
BD8
  8
DATA
  6
CONTINUOUS
 62
     7
 10
84.670911135246627
 20
72.846948899502024
 30
0.0
  0
SEQEND
  5
BD9
  8
DATA
  6
CONTINUOUS
 62
     7
  0
POLYLINE
  5
471
  8
DATA
  6
CONTINUOUS
 62
     7
 66
     1
 10
0.0
 20
0.0
 30
0.0
  0
VERTEX
  5
BDA
  8
DATA
  6
CONTINUOUS
 62
     7
 10
79.295402569921563
 20
75.895819530414883
 30
0.0
  0
VERTEX
  5
BDB
  8
DATA
  6
CONTINUOUS
 62
     7
 10
79.295402569921563
 20
80.895794530414662
 30
0.0
  0
VERTEX
  5
BDC
  8
DATA
  6
CONTINUOUS
 62
     7
 10
78.045627569922146
 20
80.895794530414662
 30
0.0
  0
SEQEND
  5
BDD
  8
DATA
  6
CONTINUOUS
 62
     7
  0
POLYLINE
  5
476
  8
DATA
  6
CONTINUOUS
 62
     7
 66
     1
 10
0.0
 20
0.0
 30
0.0
  0
VERTEX
  5
BDE
  8
DATA
  6
CONTINUOUS
 62
     7
 10
78.045627569922146
 20
80.895794530414662
 30
0.0
  0
VERTEX
  5
BDF
  8
DATA
  6
CONTINUOUS
 62
     7
 10
78.045702569921957
 20
75.895819530414883
 30
0.0
  0
VERTEX
  5
BE0
  8
DATA
  6
CONTINUOUS
 62
     7
 10
79.295402569921563
 20
75.895819530414883
 30
0.0
  0
SEQEND
  5
BE1
  8
DATA
  6
CONTINUOUS
 62
     7
  0
POLYLINE
  5
47B
  8
DATA
  6
CONTINUOUS
 62
     7
 66
     1
 10
0.0
 20
0.0
 30
0.0
  0
VERTEX
  5
BE2
  8
DATA
  6
CONTINUOUS
 62
     7
 10
86.170252569921374
 20
79.84564453041429
 30
0.0
  0
VERTEX
  5
BE3
  8
DATA
  6
CONTINUOUS
 62
     7
 10
86.170177569921563
 20
84.845619530414055
 30
0.0
  0
VERTEX
  5
BE4
  8
DATA
  6
CONTINUOUS
 62
     7
 10
84.920477569921957
 20
84.845619530414055
 30
0.0
  0
SEQEND
  5
BE5
  8
DATA
  6
CONTINUOUS
 62
     7
  0
POLYLINE
  5
480
  8
DATA
  6
CONTINUOUS
 62
     7
 66
     1
 10
0.0
 20
0.0
 30
0.0
  0
VERTEX
  5
BE6
  8
DATA
  6
CONTINUOUS
 62
     7
 10
84.920477569921957
 20
84.845619530414055
 30
0.0
  0
VERTEX
  5
BE7
  8
DATA
  6
CONTINUOUS
 62
     7
 10
84.920477569921957
 20
79.84564453041429
 30
0.0
  0
VERTEX
  5
BE8
  8
DATA
  6
CONTINUOUS
 62
     7
 10
86.170252569921374
 20
79.84564453041429
 30
0.0
  0
SEQEND
  5
BE9
  8
DATA
  6
CONTINUOUS
 62
     7
  0
POLYLINE
  5
485
  8
DATA
  6
CONTINUOUS
 62
     7
 66
     1
 10
0.0
 20
0.0
 30
0.0
  0
VERTEX
  5
BEA
  8
DATA
  6
CONTINUOUS
 62
     7
 10
72.420477569921957
 20
79.845469530414732
 30
0.0
  0
VERTEX
  5
BEB
  8
DATA
  6
CONTINUOUS
 62
     7
 10
72.420477569921957
 20
84.845444530414511
 30
0.0
  0
VERTEX
  5
BEC
  8
DATA
  6
CONTINUOUS
 62
     7
 10
71.170777569922336
 20
84.845444530414511
 30
0.0
  0
SEQEND
  5
BED
  8
DATA
  6
CONTINUOUS
 62
     7
  0
POLYLINE
  5
48A
  8
DATA
  6
CONTINUOUS
 62
     7
 66
     1
 10
0.0
 20
0.0
 30
0.0
  0
VERTEX
  5
BEE
  8
DATA
  6
CONTINUOUS
 62
     7
 10
71.170777569922336
 20
84.845444530414511
 30
0.0
  0
VERTEX
  5
BEF
  8
DATA
  6
CONTINUOUS
 62
     7
 10
71.170877569922069
 20
79.845469530414732
 30
0.0
  0
VERTEX
  5
BF0
  8
DATA
  6
CONTINUOUS
 62
     7
 10
72.420477569921957
 20
79.845469530414732
 30
0.0
  0
SEQEND
  5
BF1
  8
DATA
  6
CONTINUOUS
 62
     7
  0
POLYLINE
  5
48F
  8
DATA
  6
CONTINUOUS
 62
     7
 66
     1
 10
0.0
 20
0.0
 30
0.0
 70
     1
  0
VERTEX
  5
BF2
  8
DATA
  6
CONTINUOUS
 62
     7
 10
66.620427569921375
 20
98.845809238029958
 30
0.0
  0
VERTEX
  5
BF3
  8
DATA
  6
CONTINUOUS
 62
     7
 10
90.720427569921384
 20
98.845809238029958
 30
0.0
  0
VERTEX
  5
BF4
  8
DATA
  6
CONTINUOUS
 62
     7
 10
90.720427569921384
 20
88.845809238029958
 30
0.0
  0
VERTEX
  5
BF5
  8
DATA
  6
CONTINUOUS
 62
     7
 10
66.620427569921375
 20
88.845809238029958
 30
0.0
  0
SEQEND
  5
BF6
  8
DATA
  6
CONTINUOUS
 62
     7
  0
LINE
  5
495
  8
DATA
  6
CONTINUOUS
 62
     7
 10
-330.04118038183458
 20
67.289205893772547
 30
0.0
 11
-330.04118038183458
 21
106.98920589377261
 31
0.0
  0
LINE
  5
496
  8
DATA
  6
CONTINUOUS
 62
     7
 10
63.70225872645306
 20
-78.347795654093161
 30
0.0
 11
93.702218039292504
 21
-78.347795654093161
 31
0.0
  0
LINE
  5
497
  8
DATA
  6
CONTINUOUS
 62
     7
 10
63.70225872645306
 20
-78.347795654093161
 30
0.0
 11
63.70225872645306
 21
-79.84779565409309
 31
0.0
  0
LINE
  5
498
  8
DATA
  6
CONTINUOUS
 62
     7
 10
93.702218039292504
 20
-78.347795654093161
 30
0.0
 11
93.702218039292504
 21
-79.84779565409309
 31
0.0
  0
POLYLINE
  5
499
  8
DATA
  6
CONTINUOUS
 62
     7
 66
     1
 10
0.0
 20
0.0
 30
0.0
 70
   129
  0
VERTEX
  5
BF7
  8
DATA
  6
CONTINUOUS
 62
     7
 10
217.05615947743871
 20
-402.6177830960865
 30
0.0
 42
-0.4142135623730951
  0
VERTEX
  5
BF8
  8
DATA
  6
CONTINUOUS
 62
     7
 10
217.5561594774388
 20
-402.1177830960865
 30
0.0
  0
VERTEX
  5
BF9
  8
DATA
  6
CONTINUOUS
 62
     7
 10
220.05615947743871
 20
-402.1177830960865
 30
0.0
  0
VERTEX
  5
BFA
  8
DATA
  6
CONTINUOUS
 62
     7
 10
220.05615947743871
 20
-407.81778309608637
 30
0.0
  0
VERTEX
  5
BFB
  8
DATA
  6
CONTINUOUS
 62
     7
 10
217.5561594774388
 20
-407.81778309608637
 30
0.0
 42
-0.4142135623730617
  0
VERTEX
  5
BFC
  8
DATA
  6
CONTINUOUS
 62
     7
 10
217.05615947743871
 20
-407.31778309608637
 30
0.0
  0
SEQEND
  5
BFD
  8
DATA
  6
CONTINUOUS
 62
     7
  0
POLYLINE
  5
4A1
  8
DATA
  6
CONTINUOUS
 62
     7
 66
     1
 10
0.0
 20
0.0
 30
0.0
 70
   129
  0
VERTEX
  5
BFE
  8
DATA
  6
CONTINUOUS
 62
     7
 10
217.05615947743871
 20
-427.70895057244172
 30
0.0
 42
-0.4142135623730951
  0
VERTEX
  5
BFF
  8
DATA
  6
CONTINUOUS
 62
     7
 10
217.5561594774388
 20
-427.20895057244172
 30
0.0
  0
VERTEX
  5
C00
  8
DATA
  6
CONTINUOUS
 62
     7
 10
220.05615947743871
 20
-427.20895057244172
 30
0.0
  0
VERTEX
  5
C01
  8
DATA
  6
CONTINUOUS
 62
     7
 10
220.05615947743871
 20
-432.90895057244171
 30
0.0
  0
VERTEX
  5
C02
  8
DATA
  6
CONTINUOUS
 62
     7
 10
217.5561594774388
 20
-432.90895057244171
 30
0.0
 42
-0.4142135623730617
  0
VERTEX
  5
C03
  8
DATA
  6
CONTINUOUS
 62
     7
 10
217.05615947743871
 20
-432.4089505724416
 30
0.0
  0
SEQEND
  5
C04
  8
DATA
  6
CONTINUOUS
 62
     7
  0
LINE
  5
4A9
  8
DATA
  6
CONTINUOUS
 62
     7
 10
92.606829881614843
 20
-282.84638818737119
 30
0.0
 11
95.206829881614865
 21
-282.84638818737119
 31
0.0
  0
LINE
  5
4AA
  8
DATA
  6
CONTINUOUS
 62
     7
 10
91.106829881614829
 20
-281.34638818737108
 30
0.0
 11
91.106829881614829
 21
-279.84638818737108
 31
0.0
  0
LINE
  5
4AB
  8
DATA
  6
CONTINUOUS
 62
     7
 10
96.706829881614865
 20
-281.34638818737108
 30
0.0
 11
96.706829881614865
 21
-279.84638818737108
 31
0.0
  0
ARC
  5
4AC
  8
DATA
  6
CONTINUOUS
 62
     7
 10
92.606829881614843
 20
-281.34638818737108
 30
0.0
 40
1.5
 50
180.0
 51
270.0
  0
ARC
  5
4AD
  8
DATA
  6
CONTINUOUS
 62
     7
 10
95.206829881614865
 20
-281.34638818737108
 30
0.0
 40
1.5
 50
270.0
 51
0.0
  0
TEXT
  5
4AE
  8
DATA
 62
     7
 10
101.85454484664361
 20
-421.83454484664361
 30
0.0
 40
2.30859375
  1
      Remote
 41
0.8
 11
101.85454484664361
 21
-419.52595109664361
 31
0.0
 73
     3
  0
TEXT
  5
4AF
  8
DATA
 62
     7
 10
101.85454484664361
 20
-424.83454484664361
 30
0.0
 40
2.30859375
  1
Power System
 41
0.8
 11
101.85454484664361
 21
-422.52595109664361
 31
0.0
 73
     3
  0
POLYLINE
  5
4B0
  8
DATA
  6
CONTINUOUS
 62
     7
 66
     1
 10
0.0
 20
0.0
 30
0.0
 70
   129
  0
VERTEX
  5
C05
  8
DATA
  6
CONTINUOUS
 62
     7
 10
83.445114677961186
 20
-405.88127222572672
 30
0.0
 42
-0.4142135623730868
  0
VERTEX
  5
C06
  8
DATA
  6
CONTINUOUS
 62
     7
 10
84.445114677961186
 20
-406.88127222572672
 30
0.0
  0
VERTEX
  5
C07
  8
DATA
  6
CONTINUOUS
 62
     7
 10
84.445114677961186
 20
-425.88127222572678
 30
0.0
 42
-0.4142135623731117
  0
VERTEX
  5
C08
  8
DATA
  6
CONTINUOUS
 62
     7
 10
83.445114677961186
 20
-426.88127222572672
 30
0.0
  0
VERTEX
  5
C09
  8
DATA
  6
CONTINUOUS
 62
     7
 10
70.145114677961104
 20
-426.88127222572672
 30
0.0
 42
-0.4142135623731035
  0
VERTEX
  5
C0A
  8
DATA
  6
CONTINUOUS
 62
     7
 10
69.145114677961118
 20
-425.88127222572678
 30
0.0
  0
VERTEX
  5
C0B
  8
DATA
  6
CONTINUOUS
 62
     7
 10
69.145114677961118
 20
-406.88127222572672
 30
0.0
 42
-0.4142135623730784
  0
VERTEX
  5
C0C
  8
DATA
  6
CONTINUOUS
 62
     7
 10
70.145114677961104
 20
-405.88127222572672
 30
0.0
  0
SEQEND
  5
C0D
  8
DATA
  6
CONTINUOUS
 62
     7
  0
ARC
  5
4BA
  8
DATA
  6
CONTINUOUS
 62
     7
 10
44.818552177961919
 20
-416.38127222572672
 30
0.0
 40
36.97656249999914
 50
348.6959037174754
 51
11.304097810149189
  0
ARC
  5
4BB
  8
DATA
  6
CONTINUOUS
 62
     7
 10
108.77167717796129
 20
-416.38127222572672
 30
0.0
 40
36.976562500000213
 50
168.69590218985121
 51
191.3040962825244
  0
LINE
  5
4BC
  8
DATA
  6
CONTINUOUS
 62
     7
 10
80.587492780338593
 20
-408.7312722257268
 30
0.0
 11
73.002736575583626
 21
-408.7312722257268
 31
0.0
  0
LINE
  5
4BD
  8
DATA
  6
CONTINUOUS
 62
     7
 10
80.587492970972406
 20
-424.0312722257267
 30
0.0
 11
73.00273638494977
 21
-424.0312722257267
 31
0.0
  0
ARC
  5
4BE
  8
DATA
  6
CONTINUOUS
 62
     7
 10
76.795114677961095
 20
-442.01579981540601
 30
0.0
 40
30.284527589679271
 50
80.972188832173558
 51
99.027811167826442
  0
POLYLINE
  5
4BF
  8
DATA
  6
CONTINUOUS
 62
     7
 66
     1
 10
0.0
 20
0.0
 30
0.0
 70
     1
  0
VERTEX
  5
C0E
  8
DATA
  6
CONTINUOUS
 62
     7
 10
74.545114677961095
 20
-409.3116166863727
 30
0.0
  0
VERTEX
  5
C0F
  8
DATA
  6
CONTINUOUS
 62
     7
 10
79.045114677961095
 20
-409.3116166863727
 30
0.0
  0
VERTEX
  5
C10
  8
DATA
  6
CONTINUOUS
 62
     7
 10
79.045114677961095
 20
-411.3116166863727
 30
0.0
  0
VERTEX
  5
C11
  8
DATA
  6
CONTINUOUS
 62
     7
 10
74.545114677961095
 20
-411.3116166863727
 30
0.0
  0
SEQEND
  5
C12
  8
DATA
  6
CONTINUOUS
 62
     7
  0
ARC
  5
4C5
  8
DATA
  6
CONTINUOUS
 62
     7
 10
80.587492780338536
 20
-409.23127222572668
 30
0.0
 40
0.4999999999999882
 50
11.304097810149051
 51
90.0
  0
ARC
  5
4C6
  8
DATA
  6
CONTINUOUS
 62
     7
 10
73.002736575583626
 20
-409.23127222572668
 30
0.0
 40
0.5
 50
90.0
 51
168.69590218984959
  0
ARC
  5
4C7
  8
DATA
  6
CONTINUOUS
 62
     7
 10
80.587492970972406
 20
-423.5312724582368
 30
0.0
 40
0.4999997674898964
 50
270.0
 51
348.69603700737048
  0
ARC
  5
4C8
  8
DATA
  6
CONTINUOUS
 62
     7
 10
73.002736384949813
 20
-423.5312724582368
 30
0.0
 40
0.4999997674899824
 50
191.3039629926397
 51
270.0
  0
TEXT
  5
4C9
  8
DATA
 62
     7
 10
72.282595105566074
 20
-403.55120529851251
 30
0.0
 40
2.693359375
  1
POWER
 41
0.8
 11
72.282595105566074
 21
-400.85784592351251
 31
0.0
 73
     3
  0
CIRCLE
  5
4CA
  8
DATA
  6
CONTINUOUS
 62
     7
 10
37.969026541526361
 20
-417.99672568372569
 30
0.0
 40
1.900000000000005
  0
POLYLINE
  5
4CB
  8
DATA
  6
CONTINUOUS
 62
     7
 66
     1
 10
0.0
 20
0.0
 30
0.0
 70
     1
  0
VERTEX
  5
C13
  8
DATA
  6
CONTINUOUS
 62
     7
 10
37.219026541526361
 20
-417.2467256837258
 30
0.0
  0
VERTEX
  5
C14
  8
DATA
  6
CONTINUOUS
 62
     7
 10
38.719026541526361
 20
-417.2467256837258
 30
0.0
  0
VERTEX
  5
C15
  8
DATA
  6
CONTINUOUS
 62
     7
 10
38.719026541526361
 20
-418.74672568372569
 30
0.0
  0
VERTEX
  5
C16
  8
DATA
  6
CONTINUOUS
 62
     7
 10
37.219026541526361
 20
-418.74672568372569
 30
0.0
  0
SEQEND
  5
C17
  8
DATA
  6
CONTINUOUS
 62
     7
  0
CIRCLE
  5
4D1
  8
DATA
  6
CONTINUOUS
 62
     7
 10
57.028539812289551
 20
-418.01289824402329
 30
0.0
 40
1.900000000000005
  0
POLYLINE
  5
4D2
  8
DATA
  6
CONTINUOUS
 62
     7
 66
     1
 10
0.0
 20
0.0
 30
0.0
 70
     1
  0
VERTEX
  5
C18
  8
DATA
  6
CONTINUOUS
 62
     7
 10
56.278539812289537
 20
-417.26289824402329
 30
0.0
  0
VERTEX
  5
C19
  8
DATA
  6
CONTINUOUS
 62
     7
 10
57.778539812289537
 20
-417.26289824402329
 30
0.0
  0
VERTEX
  5
C1A
  8
DATA
  6
CONTINUOUS
 62
     7
 10
57.778539812289537
 20
-418.76289824402329
 30
0.0
  0
VERTEX
  5
C1B
  8
DATA
  6
CONTINUOUS
 62
     7
 10
56.278539812289537
 20
-418.76289824402329
 30
0.0
  0
SEQEND
  5
C1C
  8
DATA
  6
CONTINUOUS
 62
     7
  0
TEXT
  5
4D8
  8
DATA
 62
     7
 10
36.324130223299967
 20
-424.02156559806002
 30
0.0
 40
2.1162109375
  1
PC
 41
0.8
 11
36.324130223299967
 21
-421.90535466056002
 31
0.0
 73
     3
  0
LINE
  5
4D9
  8
DATA
  6
CONTINUOUS
 62
     7
 10
65.067564625239996
 20
-402.2000000000001
 30
0.0
 11
65.067564625239996
 21
-418.0
 31
0.0
  0
LINE
  5
4DA
  8
DATA
  6
CONTINUOUS
 62
     7
 10
71.40000000000002
 20
-402.2000000000001
 30
0.0
 11
65.067564625239996
 21
-402.2000000000001
 31
0.0
  0
LINE
  5
4DB
  8
DATA
  6
CONTINUOUS
 62
     7
 10
59.799999999999997
 20
-418.0
 30
0.0
 11
65.067564625239996
 21
-418.0
 31
0.0
  0
LINE
  5
4DC
  8
DATA
  6
CONTINUOUS
 62
     7
 10
65.067564625239996
 20
-402.2000000000001
 30
0.0
 11
70.600000000000023
 21
-402.2000000000001
 31
0.0
  0
LINE
  5
4DD
  8
DATA
  6
CONTINUOUS
 62
     7
 10
-336.66319342737268
 20
-79.845855944788411
 30
0.0
 11
-336.66319342737268
 21
-276.84638818737108
 31
0.0
  0
LINE
  5
4DE
  8
DATA
  6
CONTINUOUS
 62
     7
 10
98.336806572627282
 20
-79.845855944788411
 30
0.0
 11
98.336806572627282
 21
-276.84638818737108
 31
0.0
  0
LINE
  5
4DF
  8
DATA
  6
CONTINUOUS
 62
     7
 10
98.336806572627282
 20
-79.845855944788411
 30
0.0
 11
-336.66319342737268
 21
-79.845855944788411
 31
0.0
  0
LINE
  5
4E0
  8
DATA
  6
CONTINUOUS
 62
     7
 10
-329.16319342737222
 20
-276.35638818737112
 30
0.0
 11
-336.66319342737268
 21
-276.35638818737112
 31
0.0
  0
LINE
  5
4E1
  8
DATA
  6
CONTINUOUS
 62
     7
 10
90.836806572626799
 20
-276.35638818737112
 30
0.0
 11
98.336806572627282
 21
-276.35638818737112
 31
0.0
  0
LINE
  5
4E2
  8
DATA
  6
CONTINUOUS
 62
     7
 10
-335.34118038183448
 20
61.989205893772542
 30
0.0
 11
-335.34118038183448
 21
106.98920589377261
 31
0.0
  0
LINE
  5
4E3
  8
DATA
  6
CONTINUOUS
 62
     7
 10
94.358819618164716
 20
67.289205893772547
 30
0.0
 11
94.358819618164716
 21
106.98920589377261
 31
0.0
  0
POLYLINE
  5
4E4
  8
DATA
  6
CONTINUOUS
 62
     7
 66
     1
 10
0.0
 20
0.0
 30
0.0
 70
   129
  0
VERTEX
  5
C1D
  8
DATA
  6
CONTINUOUS
 62
     7
 10
-16.88665170359463
 20
72.863790058225845
 30
0.0
 42
-0.4142135623730951
  0
VERTEX
  5
C1E
  8
DATA
  6
CONTINUOUS
 62
     7
 10
-16.38665170359463
 20
73.363790058225845
 30
0.0
 42
-0.4142135623730951
  0
VERTEX
  5
C1F
  8
DATA
  6
CONTINUOUS
 62
     7
 10
-15.88665170359462
 20
72.863790058225845
 30
0.0
 42
-0.4142135623730951
  0
VERTEX
  5
C20
  8
DATA
  6
CONTINUOUS
 62
     7
 10
-16.38665170359463
 20
72.363790058225845
 30
0.0
 42
-0.4142135623730951
  0
VERTEX
  5
C21
  8
DATA
  6
CONTINUOUS
 62
     7
 10
-16.88665170359463
 20
72.863790058225845
 30
0.0
  0
SEQEND
  5
C22
  8
DATA
  6
CONTINUOUS
 62
     7
  0
LINE
  5
4EB
  8
DATA
  6
CONTINUOUS
 62
     7
 10
-4.4466517035946254
 20
69.843728823683875
 30
0.0
 11
-17.346651703594599
 21
69.843728823683875
 31
0.0
  0
LINE
  5
4EC
  8
DATA
  6
CONTINUOUS
 62
     7
 10
-4.8232217035946396
 20
78.183728823683893
 30
0.0
 11
-16.970091703594619
 21
78.183728823683893
 31
0.0
  0
POLYLINE
  5
4ED
  8
DATA
  6
CONTINUOUS
 62
     7
 66
     1
 10
0.0
 20
0.0
 30
0.0
 70
   129
  0
VERTEX
  5
C23
  8
DATA
  6
CONTINUOUS
 62
     7
 10
-15.506651703594629
 20
75.703790058225863
 30
0.0
 42
-0.4142135623730951
  0
VERTEX
  5
C24
  8
DATA
  6
CONTINUOUS
 62
     7
 10
-15.006651703594629
 20
76.203790058225877
 30
0.0
 42
-0.4142135623730951
  0
VERTEX
  5
C25
  8
DATA
  6
CONTINUOUS
 62
     7
 10
-14.506651703594629
 20
75.703790058225863
 30
0.0
 42
-0.4142135623730951
  0
VERTEX
  5
C26
  8
DATA
  6
CONTINUOUS
 62
     7
 10
-15.006651703594629
 20
75.203790058225863
 30
0.0
 42
-0.4142135623730951
  0
VERTEX
  5
C27
  8
DATA
  6
CONTINUOUS
 62
     7
 10
-15.506651703594629
 20
75.703790058225863
 30
0.0
  0
SEQEND
  5
C28
  8
DATA
  6
CONTINUOUS
 62
     7
  0
POLYLINE
  5
4F4
  8
DATA
  6
CONTINUOUS
 62
     7
 66
     1
 10
0.0
 20
0.0
 30
0.0
 70
   129
  0
VERTEX
  5
C29
  8
DATA
  6
CONTINUOUS
 62
     7
 10
-12.76665170359462
 20
75.703790058225863
 30
0.0
 42
-0.4142135623730951
  0
VERTEX
  5
C2A
  8
DATA
  6
CONTINUOUS
 62
     7
 10
-12.26665170359462
 20
76.203790058225877
 30
0.0
 42
-0.4142135623730951
  0
VERTEX
  5
C2B
  8
DATA
  6
CONTINUOUS
 62
     7
 10
-11.76665170359462
 20
75.703790058225863
 30
0.0
 42
-0.4142135623730951
  0
VERTEX
  5
C2C
  8
DATA
  6
CONTINUOUS
 62
     7
 10
-12.26665170359462
 20
75.203790058225863
 30
0.0
 42
-0.4142135623730951
  0
VERTEX
  5
C2D
  8
DATA
  6
CONTINUOUS
 62
     7
 10
-12.76665170359462
 20
75.703790058225863
 30
0.0
  0
SEQEND
  5
C2E
  8
DATA
  6
CONTINUOUS
 62
     7
  0
POLYLINE
  5
4FB
  8
DATA
  6
CONTINUOUS
 62
     7
 66
     1
 10
0.0
 20
0.0
 30
0.0
 70
   129
  0
VERTEX
  5
C2F
  8
DATA
  6
CONTINUOUS
 62
     7
 10
-7.2866517035946003
 20
75.703790058225863
 30
0.0
 42
-0.4142135623730951
  0
VERTEX
  5
C30
  8
DATA
  6
CONTINUOUS
 62
     7
 10
-6.7866517035946003
 20
76.203790058225877
 30
0.0
 42
-0.4142135623730951
  0
VERTEX
  5
C31
  8
DATA
  6
CONTINUOUS
 62
     7
 10
-6.2866517035946003
 20
75.703790058225863
 30
0.0
 42
-0.4142135623730951
  0
VERTEX
  5
C32
  8
DATA
  6
CONTINUOUS
 62
     7
 10
-6.7866517035946003
 20
75.203790058225863
 30
0.0
 42
-0.4142135623730951
  0
VERTEX
  5
C33
  8
DATA
  6
CONTINUOUS
 62
     7
 10
-7.2866517035946003
 20
75.703790058225863
 30
0.0
  0
SEQEND
  5
C34
  8
DATA
  6
CONTINUOUS
 62
     7
  0
POLYLINE
  5
502
  8
DATA
  6
CONTINUOUS
 62
     7
 66
     1
 10
0.0
 20
0.0
 30
0.0
 70
   129
  0
VERTEX
  5
C35
  8
DATA
  6
CONTINUOUS
 62
     7
 10
-8.6566517035946067
 20
72.863790058225845
 30
0.0
 42
-0.4142135623730951
  0
VERTEX
  5
C36
  8
DATA
  6
CONTINUOUS
 62
     7
 10
-8.1566517035946067
 20
73.363790058225845
 30
0.0
 42
-0.4142135623730951
  0
VERTEX
  5
C37
  8
DATA
  6
CONTINUOUS
 62
     7
 10
-7.6566517035946058
 20
72.863790058225845
 30
0.0
 42
-0.4142135623730951
  0
VERTEX
  5
C38
  8
DATA
  6
CONTINUOUS
 62
     7
 10
-8.1566517035946067
 20
72.363790058225845
 30
0.0
 42
-0.4142135623730951
  0
VERTEX
  5
C39
  8
DATA
  6
CONTINUOUS
 62
     7
 10
-8.6566517035946067
 20
72.863790058225845
 30
0.0
  0
SEQEND
  5
C3A
  8
DATA
  6
CONTINUOUS
 62
     7
  0
POLYLINE
  5
509
  8
DATA
  6
CONTINUOUS
 62
     7
 66
     1
 10
0.0
 20
0.0
 30
0.0
 70
   129
  0
VERTEX
  5
C3B
  8
DATA
  6
CONTINUOUS
 62
     7
 10
-5.906651703594604
 20
72.863790058225845
 30
0.0
 42
-0.4142135623730951
  0
VERTEX
  5
C3C
  8
DATA
  6
CONTINUOUS
 62
     7
 10
-5.406651703594604
 20
73.363790058225845
 30
0.0
 42
-0.4142135623730951
  0
VERTEX
  5
C3D
  8
DATA
  6
CONTINUOUS
 62
     7
 10
-4.906651703594604
 20
72.863790058225845
 30
0.0
 42
-0.4142135623730951
  0
VERTEX
  5
C3E
  8
DATA
  6
CONTINUOUS
 62
     7
 10
-5.406651703594604
 20
72.363790058225845
 30
0.0
 42
-0.4142135623730951
  0
VERTEX
  5
C3F
  8
DATA
  6
CONTINUOUS
 62
     7
 10
-5.906651703594604
 20
72.863790058225845
 30
0.0
  0
SEQEND
  5
C40
  8
DATA
  6
CONTINUOUS
 62
     7
  0
POLYLINE
  5
510
  8
DATA
  6
CONTINUOUS
 62
     7
 66
     1
 10
0.0
 20
0.0
 30
0.0
 70
   129
  0
VERTEX
  5
C41
  8
DATA
  6
CONTINUOUS
 62
     7
 10
-14.13665170359462
 20
72.863790058225845
 30
0.0
 42
-0.4142135623730951
  0
VERTEX
  5
C42
  8
DATA
  6
CONTINUOUS
 62
     7
 10
-13.63665170359462
 20
73.363790058225845
 30
0.0
 42
-0.4142135623730951
  0
VERTEX
  5
C43
  8
DATA
  6
CONTINUOUS
 62
     7
 10
-13.13665170359462
 20
72.863790058225845
 30
0.0
 42
-0.4142135623730951
  0
VERTEX
  5
C44
  8
DATA
  6
CONTINUOUS
 62
     7
 10
-13.63665170359462
 20
72.363790058225845
 30
0.0
 42
-0.4142135623730951
  0
VERTEX
  5
C45
  8
DATA
  6
CONTINUOUS
 62
     7
 10
-14.13665170359462
 20
72.863790058225845
 30
0.0
  0
SEQEND
  5
C46
  8
DATA
  6
CONTINUOUS
 62
     7
  0
POLYLINE
  5
517
  8
DATA
  6
CONTINUOUS
 62
     7
 66
     1
 10
0.0
 20
0.0
 30
0.0
 70
   129
  0
VERTEX
  5
C47
  8
DATA
  6
CONTINUOUS
 62
     7
 10
-10.026651703594609
 20
75.703790058225863
 30
0.0
 42
-0.4142135623730951
  0
VERTEX
  5
C48
  8
DATA
  6
CONTINUOUS
 62
     7
 10
-9.5266517035946077
 20
76.203790058225877
 30
0.0
 42
-0.4142135623730951
  0
VERTEX
  5
C49
  8
DATA
  6
CONTINUOUS
 62
     7
 10
-9.0266517035946077
 20
75.703790058225863
 30
0.0
 42
-0.4142135623730951
  0
VERTEX
  5
C4A
  8
DATA
  6
CONTINUOUS
 62
     7
 10
-9.5266517035946077
 20
75.203790058225863
 30
0.0
 42
-0.4142135623730951
  0
VERTEX
  5
C4B
  8
DATA
  6
CONTINUOUS
 62
     7
 10
-10.026651703594609
 20
75.703790058225863
 30
0.0
  0
SEQEND
  5
C4C
  8
DATA
  6
CONTINUOUS
 62
     7
  0
POLYLINE
  5
51E
  8
DATA
  6
CONTINUOUS
 62
     7
 66
     1
 10
0.0
 20
0.0
 30
0.0
 70
   129
  0
VERTEX
  5
C4D
  8
DATA
  6
CONTINUOUS
 62
     7
 10
-11.39665170359461
 20
72.863790058225845
 30
0.0
 42
-0.4142135623730951
  0
VERTEX
  5
C4E
  8
DATA
  6
CONTINUOUS
 62
     7
 10
-10.89665170359461
 20
73.363790058225845
 30
0.0
 42
-0.4142135623730951
  0
VERTEX
  5
C4F
  8
DATA
  6
CONTINUOUS
 62
     7
 10
-10.39665170359461
 20
72.863790058225845
 30
0.0
 42
-0.4142135623730951
  0
VERTEX
  5
C50
  8
DATA
  6
CONTINUOUS
 62
     7
 10
-10.89665170359461
 20
72.363790058225845
 30
0.0
 42
-0.4142135623730951
  0
VERTEX
  5
C51
  8
DATA
  6
CONTINUOUS
 62
     7
 10
-11.39665170359461
 20
72.863790058225845
 30
0.0
  0
SEQEND
  5
C52
  8
DATA
  6
CONTINUOUS
 62
     7
  0
ARC
  5
525
  8
DATA
  6
CONTINUOUS
 62
     7
 10
-4.4466517035946254
 20
71.843728823683875
 30
0.0
 40
2.0
 50
270.0
 51
0.0
  0
LINE
  5
526
  8
DATA
  6
CONTINUOUS
 62
     7
 10
-2.4466517035946249
 20
71.843728823683875
 30
0.0
 11
-3.3460017035945948
 21
76.944198823683905
 31
0.0
  0
ARC
  5
527
  8
DATA
  6
CONTINUOUS
 62
     7
 10
-4.8232217035946396
 20
76.683728823683907
 30
0.0
 40
1.499998001665348
 50
9.9999255496014055
 51
90.0
  0
ARC
  5
528
  8
DATA
  6
CONTINUOUS
 62
     7
 10
-17.346651703594599
 20
71.843728823683875
 30
0.0
 40
2.0
 50
180.0
 51
270.0
  0
LINE
  5
529
  8
DATA
  6
CONTINUOUS
 62
     7
 10
-19.346651703594599
 20
71.843728823683875
 30
0.0
 11
-18.447301703594629
 21
76.944198823683905
 31
0.0
  0
ARC
  5
52A
  8
DATA
  6
CONTINUOUS
 62
     7
 10
-16.970091703594619
 20
76.683728823683907
 30
0.0
 40
1.5
 50
90.0
 51
170.0000744503979
  0
LINE
  5
52B
  8
DATA
  6
CONTINUOUS
 62
     7
 10
-4.1241517035946336
 20
69.63522882368386
 30
0.0
 11
-17.66915170359459
 21
69.63522882368386
 31
0.0
  0
LINE
  5
52C
  8
DATA
  6
CONTINUOUS
 62
     7
 10
-4.5195502035946324
 20
78.392228823683922
 30
0.0
 11
-17.273763703594621
 21
78.392228823683922
 31
0.0
  0
ARC
  5
52D
  8
DATA
  6
CONTINUOUS
 62
     7
 10
-4.1241517035946336
 20
71.735228823683869
 30
0.0
 40
2.1000000000000218
 50
270.0
 51
0.0
  0
LINE
  5
52E
  8
DATA
  6
CONTINUOUS
 62
     7
 10
-2.0241517035946122
 20
71.735228823683869
 30
0.0
 11
-2.968469203594565
 21
77.090722323683906
 31
0.0
  0
ARC
  5
52F
  8
DATA
  6
CONTINUOUS
 62
     7
 10
-4.5195502035946324
 20
76.817228823683934
 30
0.0
 40
1.574997901748578
 50
9.9999255496007038
 51
89.999999999999986
  0
ARC
  5
530
  8
DATA
  6
CONTINUOUS
 62
     7
 10
-17.66915170359459
 20
71.735228823683869
 30
0.0
 40
2.1000000000000218
 50
180.0
 51
270.0
  0
LINE
  5
531
  8
DATA
  6
CONTINUOUS
 62
     7
 10
-19.769151703594609
 20
71.735228823683869
 30
0.0
 11
-18.824834203594659
 21
77.090722323683906
 31
0.0
  0
ARC
  5
532
  8
DATA
  6
CONTINUOUS
 62
     7
 10
-17.273763703594621
 20
76.817228823683934
 30
0.0
 40
1.574999999999988
 50
90.0
 51
170.0000744503979
  0
POLYLINE
  5
533
  8
DATA
  6
CONTINUOUS
 62
     7
 66
     1
 10
0.0
 20
0.0
 30
0.0
 70
     1
  0
VERTEX
  5
C53
  8
DATA
  6
CONTINUOUS
 62
     7
 10
0.3605812085309026
 20
71.86188588476108
 30
0.0
  0
VERTEX
  5
C54
  8
DATA
  6
CONTINUOUS
 62
     7
 10
3.0763649855308008
 20
72.000594056716011
 30
0.0
  0
VERTEX
  5
C55
  8
DATA
  6
CONTINUOUS
 62
     7
 10
4.3141320734052888
 20
74.421885884761025
 30
0.0
  0
VERTEX
  5
C56
  8
DATA
  6
CONTINUOUS
 62
     7
 10
2.8361153842798781
 20
76.704469540851093
 30
0.0
  0
VERTEX
  5
C57
  8
DATA
  6
CONTINUOUS
 62
     7
 10
0.1203316072799794
 20
76.56576136889619
 30
0.0
  0
VERTEX
  5
C58
  8
DATA
  6
CONTINUOUS
 62
     7
 10
-1.1174354805945079
 20
74.144469540851176
 30
0.0
  0
SEQEND
  5
C59
  8
DATA
  6
CONTINUOUS
 62
     7
  0
CIRCLE
  5
53B
  8
DATA
  6
CONTINUOUS
 62
     7
 10
1.5983482964053899
 20
74.283177712806093
 30
0.0
 40
1.149999999999977
  0
CIRCLE
  5
53C
  8
DATA
  6
CONTINUOUS
 62
     7
 10
1.5983482964053899
 20
74.283177712806093
 30
0.0
 40
1.759905868717929
  0
POLYLINE
  5
53D
  8
DATA
  6
CONTINUOUS
 62
     7
 66
     1
 10
0.0
 20
0.0
 30
0.0
 70
     1
  0
VERTEX
  5
C5A
  8
DATA
  6
CONTINUOUS
 62
     7
 10
-24.62941879146911
 20
71.86188588476108
 30
0.0
  0
VERTEX
  5
C5B
  8
DATA
  6
CONTINUOUS
 62
     7
 10
-21.913635014469211
 20
72.000594056716011
 30
0.0
  0
VERTEX
  5
C5C
  8
DATA
  6
CONTINUOUS
 62
     7
 10
-20.675867926594719
 20
74.421885884761025
 30
0.0
  0
VERTEX
  5
C5D
  8
DATA
  6
CONTINUOUS
 62
     7
 10
-22.153884615720131
 20
76.704469540851093
 30
0.0
  0
VERTEX
  5
C5E
  8
DATA
  6
CONTINUOUS
 62
     7
 10
-24.86966839272004
 20
76.56576136889619
 30
0.0
  0
VERTEX
  5
C5F
  8
DATA
  6
CONTINUOUS
 62
     7
 10
-26.107435480594521
 20
74.144469540851176
 30
0.0
  0
SEQEND
  5
C60
  8
DATA
  6
CONTINUOUS
 62
     7
  0
CIRCLE
  5
545
  8
DATA
  6
CONTINUOUS
 62
     7
 10
-23.391651703594611
 20
74.283177712806093
 30
0.0
 40
1.149999999999977
  0
CIRCLE
  5
546
  8
DATA
  6
CONTINUOUS
 62
     7
 10
-23.391651703594611
 20
74.283177712806093
 30
0.0
 40
1.759905868717929
  0
POLYLINE
  5
547
  8
DATA
  6
CONTINUOUS
 62
     7
 66
     1
 10
0.0
 20
0.0
 30
0.0
 70
   129
  0
VERTEX
  5
C61
  8
DATA
  6
CONTINUOUS
 62
     7
 10
-16.833112537542441
 20
91.149391292038445
 30
0.0
 42
-0.4142135623730951
  0
VERTEX
  5
C62
  8
DATA
  6
CONTINUOUS
 62
     7
 10
-16.333112537542441
 20
91.649391292038445
 30
0.0
 42
-0.4142135623730951
  0
VERTEX
  5
C63
  8
DATA
  6
CONTINUOUS
 62
     7
 10
-15.83311253754243
 20
91.149391292038445
 30
0.0
 42
-0.4142135623730951
  0
VERTEX
  5
C64
  8
DATA
  6
CONTINUOUS
 62
     7
 10
-16.333112537542441
 20
90.649391292038445
 30
0.0
 42
-0.4142135623730951
  0
VERTEX
  5
C65
  8
DATA
  6
CONTINUOUS
 62
     7
 10
-16.833112537542441
 20
91.149391292038445
 30
0.0
  0
SEQEND
  5
C66
  8
DATA
  6
CONTINUOUS
 62
     7
  0
LINE
  5
54E
  8
DATA
  6
CONTINUOUS
 62
     7
 10
-4.3931125375424349
 20
88.129330057496446
 30
0.0
 11
-17.29311253754241
 21
88.129330057496446
 31
0.0
  0
LINE
  5
54F
  8
DATA
  6
CONTINUOUS
 62
     7
 10
-4.7696825375424501
 20
96.469330057496506
 30
0.0
 11
-16.916552537542419
 21
96.469330057496506
 31
0.0
  0
POLYLINE
  5
550
  8
DATA
  6
CONTINUOUS
 62
     7
 66
     1
 10
0.0
 20
0.0
 30
0.0
 70
   129
  0
VERTEX
  5
C67
  8
DATA
  6
CONTINUOUS
 62
     7
 10
-15.45311253754244
 20
93.989391292038462
 30
0.0
 42
-0.4142135623730951
  0
VERTEX
  5
C68
  8
DATA
  6
CONTINUOUS
 62
     7
 10
-14.95311253754244
 20
94.489391292038462
 30
0.0
 42
-0.4142135623730951
  0
VERTEX
  5
C69
  8
DATA
  6
CONTINUOUS
 62
     7
 10
-14.45311253754244
 20
93.989391292038462
 30
0.0
 42
-0.4142135623730951
  0
VERTEX
  5
C6A
  8
DATA
  6
CONTINUOUS
 62
     7
 10
-14.95311253754244
 20
93.489391292038476
 30
0.0
 42
-0.4142135623730951
  0
VERTEX
  5
C6B
  8
DATA
  6
CONTINUOUS
 62
     7
 10
-15.45311253754244
 20
93.989391292038462
 30
0.0
  0
SEQEND
  5
C6C
  8
DATA
  6
CONTINUOUS
 62
     7
  0
POLYLINE
  5
557
  8
DATA
  6
CONTINUOUS
 62
     7
 66
     1
 10
0.0
 20
0.0
 30
0.0
 70
   129
  0
VERTEX
  5
C6D
  8
DATA
  6
CONTINUOUS
 62
     7
 10
-12.713112537542431
 20
93.989391292038462
 30
0.0
 42
-0.4142135623730951
  0
VERTEX
  5
C6E
  8
DATA
  6
CONTINUOUS
 62
     7
 10
-12.21311253754242
 20
94.489391292038462
 30
0.0
 42
-0.4142135623730951
  0
VERTEX
  5
C6F
  8
DATA
  6
CONTINUOUS
 62
     7
 10
-11.71311253754242
 20
93.989391292038462
 30
0.0
 42
-0.4142135623730951
  0
VERTEX
  5
C70
  8
DATA
  6
CONTINUOUS
 62
     7
 10
-12.21311253754242
 20
93.489391292038476
 30
0.0
 42
-0.4142135623730951
  0
VERTEX
  5
C71
  8
DATA
  6
CONTINUOUS
 62
     7
 10
-12.713112537542431
 20
93.989391292038462
 30
0.0
  0
SEQEND
  5
C72
  8
DATA
  6
CONTINUOUS
 62
     7
  0
POLYLINE
  5
55E
  8
DATA
  6
CONTINUOUS
 62
     7
 66
     1
 10
0.0
 20
0.0
 30
0.0
 70
   129
  0
VERTEX
  5
C73
  8
DATA
  6
CONTINUOUS
 62
     7
 10
-7.233112537542409
 20
93.989391292038462
 30
0.0
 42
-0.4142135623730951
  0
VERTEX
  5
C74
  8
DATA
  6
CONTINUOUS
 62
     7
 10
-6.7331125375424099
 20
94.489391292038462
 30
0.0
 42
-0.4142135623730951
  0
VERTEX
  5
C75
  8
DATA
  6
CONTINUOUS
 62
     7
 10
-6.2331125375424099
 20
93.989391292038462
 30
0.0
 42
-0.4142135623730951
  0
VERTEX
  5
C76
  8
DATA
  6
CONTINUOUS
 62
     7
 10
-6.7331125375424099
 20
93.489391292038476
 30
0.0
 42
-0.4142135623730951
  0
VERTEX
  5
C77
  8
DATA
  6
CONTINUOUS
 62
     7
 10
-7.233112537542409
 20
93.989391292038462
 30
0.0
  0
SEQEND
  5
C78
  8
DATA
  6
CONTINUOUS
 62
     7
  0
POLYLINE
  5
565
  8
DATA
  6
CONTINUOUS
 62
     7
 66
     1
 10
0.0
 20
0.0
 30
0.0
 70
   129
  0
VERTEX
  5
C79
  8
DATA
  6
CONTINUOUS
 62
     7
 10
-8.6031125375424136
 20
91.149391292038445
 30
0.0
 42
-0.4142135623730951
  0
VERTEX
  5
C7A
  8
DATA
  6
CONTINUOUS
 62
     7
 10
-8.1031125375424136
 20
91.649391292038445
 30
0.0
 42
-0.4142135623730951
  0
VERTEX
  5
C7B
  8
DATA
  6
CONTINUOUS
 62
     7
 10
-7.6031125375424136
 20
91.149391292038445
 30
0.0
 42
-0.4142135623730951
  0
VERTEX
  5
C7C
  8
DATA
  6
CONTINUOUS
 62
     7
 10
-8.1031125375424136
 20
90.649391292038445
 30
0.0
 42
-0.4142135623730951
  0
VERTEX
  5
C7D
  8
DATA
  6
CONTINUOUS
 62
     7
 10
-8.6031125375424136
 20
91.149391292038445
 30
0.0
  0
SEQEND
  5
C7E
  8
DATA
  6
CONTINUOUS
 62
     7
  0
POLYLINE
  5
56C
  8
DATA
  6
CONTINUOUS
 62
     7
 66
     1
 10
0.0
 20
0.0
 30
0.0
 70
   129
  0
VERTEX
  5
C7F
  8
DATA
  6
CONTINUOUS
 62
     7
 10
-5.8531125375424153
 20
91.149391292038445
 30
0.0
 42
-0.4142135623730951
  0
VERTEX
  5
C80
  8
DATA
  6
CONTINUOUS
 62
     7
 10
-5.3531125375424153
 20
91.649391292038445
 30
0.0
 42
-0.4142135623730951
  0
VERTEX
  5
C81
  8
DATA
  6
CONTINUOUS
 62
     7
 10
-4.8531125375424153
 20
91.149391292038445
 30
0.0
 42
-0.4142135623730951
  0
VERTEX
  5
C82
  8
DATA
  6
CONTINUOUS
 62
     7
 10
-5.3531125375424153
 20
90.649391292038445
 30
0.0
 42
-0.4142135623730951
  0
VERTEX
  5
C83
  8
DATA
  6
CONTINUOUS
 62
     7
 10
-5.8531125375424153
 20
91.149391292038445
 30
0.0
  0
SEQEND
  5
C84
  8
DATA
  6
CONTINUOUS
 62
     7
  0
POLYLINE
  5
573
  8
DATA
  6
CONTINUOUS
 62
     7
 66
     1
 10
0.0
 20
0.0
 30
0.0
 70
   129
  0
VERTEX
  5
C85
  8
DATA
  6
CONTINUOUS
 62
     7
 10
-14.08311253754243
 20
91.149391292038445
 30
0.0
 42
-0.4142135623730951
  0
VERTEX
  5
C86
  8
DATA
  6
CONTINUOUS
 62
     7
 10
-13.58311253754243
 20
91.649391292038445
 30
0.0
 42
-0.4142135623730951
  0
VERTEX
  5
C87
  8
DATA
  6
CONTINUOUS
 62
     7
 10
-13.08311253754243
 20
91.149391292038445
 30
0.0
 42
-0.4142135623730951
  0
VERTEX
  5
C88
  8
DATA
  6
CONTINUOUS
 62
     7
 10
-13.58311253754243
 20
90.649391292038445
 30
0.0
 42
-0.4142135623730951
  0
VERTEX
  5
C89
  8
DATA
  6
CONTINUOUS
 62
     7
 10
-14.08311253754243
 20
91.149391292038445
 30
0.0
  0
SEQEND
  5
C8A
  8
DATA
  6
CONTINUOUS
 62
     7
  0
POLYLINE
  5
57A
  8
DATA
  6
CONTINUOUS
 62
     7
 66
     1
 10
0.0
 20
0.0
 30
0.0
 70
   129
  0
VERTEX
  5
C8B
  8
DATA
  6
CONTINUOUS
 62
     7
 10
-9.9731125375424217
 20
93.989391292038462
 30
0.0
 42
-0.4142135623730951
  0
VERTEX
  5
C8C
  8
DATA
  6
CONTINUOUS
 62
     7
 10
-9.4731125375424217
 20
94.489391292038462
 30
0.0
 42
-0.4142135623730951
  0
VERTEX
  5
C8D
  8
DATA
  6
CONTINUOUS
 62
     7
 10
-8.9731125375424217
 20
93.989391292038462
 30
0.0
 42
-0.4142135623730951
  0
VERTEX
  5
C8E
  8
DATA
  6
CONTINUOUS
 62
     7
 10
-9.4731125375424217
 20
93.489391292038476
 30
0.0
 42
-0.4142135623730951
  0
VERTEX
  5
C8F
  8
DATA
  6
CONTINUOUS
 62
     7
 10
-9.9731125375424217
 20
93.989391292038462
 30
0.0
  0
SEQEND
  5
C90
  8
DATA
  6
CONTINUOUS
 62
     7
  0
POLYLINE
  5
581
  8
DATA
  6
CONTINUOUS
 62
     7
 66
     1
 10
0.0
 20
0.0
 30
0.0
 70
   129
  0
VERTEX
  5
C91
  8
DATA
  6
CONTINUOUS
 62
     7
 10
-11.343112537542421
 20
91.149391292038445
 30
0.0
 42
-0.4142135623730951
  0
VERTEX
  5
C92
  8
DATA
  6
CONTINUOUS
 62
     7
 10
-10.843112537542421
 20
91.649391292038445
 30
0.0
 42
-0.4142135623730951
  0
VERTEX
  5
C93
  8
DATA
  6
CONTINUOUS
 62
     7
 10
-10.343112537542421
 20
91.149391292038445
 30
0.0
 42
-0.4142135623730951
  0
VERTEX
  5
C94
  8
DATA
  6
CONTINUOUS
 62
     7
 10
-10.843112537542421
 20
90.649391292038445
 30
0.0
 42
-0.4142135623730951
  0
VERTEX
  5
C95
  8
DATA
  6
CONTINUOUS
 62
     7
 10
-11.343112537542421
 20
91.149391292038445
 30
0.0
  0
SEQEND
  5
C96
  8
DATA
  6
CONTINUOUS
 62
     7
  0
ARC
  5
588
  8
DATA
  6
CONTINUOUS
 62
     7
 10
-4.3931125375424349
 20
90.129330057496446
 30
0.0
 40
2.0
 50
270.0
 51
0.0
  0
LINE
  5
589
  8
DATA
  6
CONTINUOUS
 62
     7
 10
-2.3931125375424349
 20
90.129330057496446
 30
0.0
 11
-3.2924625375424048
 21
95.229800057496504
 31
0.0
  0
ARC
  5
58A
  8
DATA
  6
CONTINUOUS
 62
     7
 10
-4.7696825375424501
 20
94.969330057496492
 30
0.0
 40
1.499998001665348
 50
9.9999255496014055
 51
90.0
  0
ARC
  5
58B
  8
DATA
  6
CONTINUOUS
 62
     7
 10
-17.29311253754241
 20
90.129330057496446
 30
0.0
 40
2.0
 50
180.0
 51
270.0
  0
LINE
  5
58C
  8
DATA
  6
CONTINUOUS
 62
     7
 10
-19.29311253754241
 20
90.129330057496446
 30
0.0
 11
-18.39376253754245
 21
95.229800057496504
 31
0.0
  0
ARC
  5
58D
  8
DATA
  6
CONTINUOUS
 62
     7
 10
-16.916552537542419
 20
94.969330057496492
 30
0.0
 40
1.5
 50
90.0
 51
170.0000744503979
  0
POLYLINE
  5
58E
  8
DATA
  6
CONTINUOUS
 62
     7
 66
     1
 10
0.0
 20
0.0
 30
0.0
 70
     1
  0
VERTEX
  5
C97
  8
DATA
  6
CONTINUOUS
 62
     7
 10
0.4141203745830921
 20
90.147487118573665
 30
0.0
  0
VERTEX
  5
C98
  8
DATA
  6
CONTINUOUS
 62
     7
 10
3.1299041515829908
 20
90.286195290528596
 30
0.0
  0
VERTEX
  5
C99
  8
DATA
  6
CONTINUOUS
 62
     7
 10
4.3676712394574793
 20
92.707487118573596
 30
0.0
  0
VERTEX
  5
C9A
  8
DATA
  6
CONTINUOUS
 62
     7
 10
2.8896545503320681
 20
94.990070774663693
 30
0.0
  0
VERTEX
  5
C9B
  8
DATA
  6
CONTINUOUS
 62
     7
 10
0.1738707733321689
 20
94.851362602708747
 30
0.0
  0
VERTEX
  5
C9C
  8
DATA
  6
CONTINUOUS
 62
     7
 10
-1.063896314542319
 20
92.430070774663733
 30
0.0
  0
SEQEND
  5
C9D
  8
DATA
  6
CONTINUOUS
 62
     7
  0
CIRCLE
  5
596
  8
DATA
  6
CONTINUOUS
 62
     7
 10
1.651887462457579
 20
92.568778946618707
 30
0.0
 40
1.149999999999977
  0
CIRCLE
  5
597
  8
DATA
  6
CONTINUOUS
 62
     7
 10
1.651887462457579
 20
92.568778946618707
 30
0.0
 40
1.759905868717929
  0
POLYLINE
  5
598
  8
DATA
  6
CONTINUOUS
 62
     7
 66
     1
 10
0.0
 20
0.0
 30
0.0
 70
     1
  0
VERTEX
  5
C9E
  8
DATA
  6
CONTINUOUS
 62
     7
 10
-24.575879625416931
 20
90.147487118573665
 30
0.0
  0
VERTEX
  5
C9F
  8
DATA
  6
CONTINUOUS
 62
     7
 10
-21.860095848417021
 20
90.286195290528596
 30
0.0
  0
VERTEX
  5
CA0
  8
DATA
  6
CONTINUOUS
 62
     7
 10
-20.62232876054253
 20
92.707487118573596
 30
0.0
  0
VERTEX
  5
CA1
  8
DATA
  6
CONTINUOUS
 62
     7
 10
-22.100345449667941
 20
94.990070774663693
 30
0.0
  0
VERTEX
  5
CA2
  8
DATA
  6
CONTINUOUS
 62
     7
 10
-24.81612922666784
 20
94.851362602708747
 30
0.0
  0
VERTEX
  5
CA3
  8
DATA
  6
CONTINUOUS
 62
     7
 10
-26.053896314542332
 20
92.430070774663733
 30
0.0
  0
SEQEND
  5
CA4
  8
DATA
  6
CONTINUOUS
 62
     7
  0
CIRCLE
  5
5A0
  8
DATA
  6
CONTINUOUS
 62
     7
 10
-23.338112537542429
 20
92.568778946618707
 30
0.0
 40
1.149999999999977
  0
CIRCLE
  5
5A1
  8
DATA
  6
CONTINUOUS
 62
     7
 10
-23.338112537542429
 20
92.568778946618707
 30
0.0
 40
1.759905868717929
  0
LINE
  5
5A2
  8
DATA
  6
CONTINUOUS
 62
     7
 10
-3.4256125375424342
 20
87.503830057496444
 30
0.0
 11
-18.260612537542411
 21
87.503830057496444
 31
0.0
  0
LINE
  5
5A3
  8
DATA
  6
CONTINUOUS
 62
     7
 10
-3.8586680375424569
 20
97.094830057496495
 30
0.0
 11
-17.827568537542419
 21
97.094830057496495
 31
0.0
  0
ARC
  5
5A4
  8
DATA
  6
CONTINUOUS
 62
     7
 10
-3.4256125375424342
 20
89.803830057496455
 30
0.0
 40
2.2999999999999821
 50
270.0
 51
0.0
  0
LINE
  5
5A5
  8
DATA
  6
CONTINUOUS
 62
     7
 10
-1.1256125375424511
 20
89.803830057496455
 30
0.0
 11
-2.159865037542402
 21
95.669370557496492
 31
0.0
  0
ARC
  5
5A6
  8
DATA
  6
CONTINUOUS
 62
     7
 10
-3.8586680375424569
 20
95.369830057496515
 30
0.0
 40
1.7249977019151581
 50
9.9999255496006878
 51
90.0
  0
ARC
  5
5A7
  8
DATA
  6
CONTINUOUS
 62
     7
 10
-18.260612537542411
 20
89.803830057496455
 30
0.0
 40
2.2999999999999821
 50
180.0
 51
270.0
  0
LINE
  5
5A8
  8
DATA
  6
CONTINUOUS
 62
     7
 10
-20.560612537542401
 20
89.803830057496455
 30
0.0
 11
-19.52636003754245
 21
95.669370557496492
 31
0.0
  0
ARC
  5
5A9
  8
DATA
  6
CONTINUOUS
 62
     7
 10
-17.827568537542419
 20
95.369830057496515
 30
0.0
 40
1.724999999999965
 50
90.0
 51
170.0000744503987
  0
POLYLINE
  5
5AA
  8
DATA
  6
CONTINUOUS
 62
     7
 66
     1
 10
0.0
 20
0.0
 30
0.0
 70
     1
  0
VERTEX
  5
CA5
  8
DATA
  6
CONTINUOUS
 62
     7
 10
-44.337560617906647
 20
98.536126713092571
 30
0.0
  0
VERTEX
  5
CA6
  8
DATA
  6
CONTINUOUS
 62
     7
 10
-29.33756061790627
 20
98.536126713092571
 30
0.0
  0
VERTEX
  5
CA7
  8
DATA
  6
CONTINUOUS
 62
     7
 10
-29.33756061790627
 20
86.536126713092585
 30
0.0
  0
VERTEX
  5
CA8
  8
DATA
  6
CONTINUOUS
 62
     7
 10
-44.337560617906647
 20
86.536126713092585
 30
0.0
  0
SEQEND
  5
CA9
  8
DATA
  6
CONTINUOUS
 62
     7
  0
POLYLINE
  5
5B0
  8
DATA
  6
CONTINUOUS
 62
     7
 66
     1
 10
0.0
 20
0.0
 30
0.0
  0
VERTEX
  5
CAA
  8
DATA
  6
CONTINUOUS
 62
     7
 10
-33.537560617906308
 20
95.036126713092557
 30
0.0
  0
VERTEX
  5
CAB
  8
DATA
  6
CONTINUOUS
 62
     7
 10
-30.83756061790627
 20
95.036126713092557
 30
0.0
  0
VERTEX
  5
CAC
  8
DATA
  6
CONTINUOUS
 62
     7
 10
-30.83756061790627
 20
93.236126713092546
 30
0.0
  0
SEQEND
  5
CAD
  8
DATA
  6
CONTINUOUS
 62
     7
  0
POLYLINE
  5
5B5
  8
DATA
  6
CONTINUOUS
 62
     7
 66
     1
 10
0.0
 20
0.0
 30
0.0
  0
VERTEX
  5
CAE
  8
DATA
  6
CONTINUOUS
 62
     7
 10
-40.137560617906452
 20
95.036126713092557
 30
0.0
  0
VERTEX
  5
CAF
  8
DATA
  6
CONTINUOUS
 62
     7
 10
-42.83756061790654
 20
95.036126713092557
 30
0.0
  0
VERTEX
  5
CB0
  8
DATA
  6
CONTINUOUS
 62
     7
 10
-42.83756061790654
 20
93.236126713092546
 30
0.0
  0
SEQEND
  5
CB1
  8
DATA
  6
CONTINUOUS
 62
     7
  0
POLYLINE
  5
5BA
  8
DATA
  6
CONTINUOUS
 62
     7
 66
     1
 10
0.0
 20
0.0
 30
0.0
  0
VERTEX
  5
CB2
  8
DATA
  6
CONTINUOUS
 62
     7
 10
-30.83756061790627
 20
90.536126713092557
 30
0.0
  0
VERTEX
  5
CB3
  8
DATA
  6
CONTINUOUS
 62
     7
 10
-30.83756061790627
 20
88.836126713092511
 30
0.0
  0
VERTEX
  5
CB4
  8
DATA
  6
CONTINUOUS
 62
     7
 10
-42.83756061790654
 20
88.836126713092511
 30
0.0
  0
VERTEX
  5
CB5
  8
DATA
  6
CONTINUOUS
 62
     7
 10
-42.83756061790654
 20
90.536126713092557
 30
0.0
  0
SEQEND
  5
CB6
  8
DATA
  6
CONTINUOUS
 62
     7
  0
LINE
  5
5C0
  8
DATA
  6
CONTINUOUS
 62
     7
 10
-42.83756061790654
 20
90.536126713092557
 30
0.0
 11
-43.487560617906581
 21
90.536126713092557
 31
0.0
  0
LINE
  5
5C1
  8
DATA
  6
CONTINUOUS
 62
     7
 10
-43.487560617906581
 20
90.536126713092557
 30
0.0
 11
-43.487560617906581
 21
93.236126713092546
 31
0.0
  0
LINE
  5
5C2
  8
DATA
  6
CONTINUOUS
 62
     7
 10
-43.487560617906581
 20
93.236126713092546
 30
0.0
 11
-42.83756061790654
 21
93.236126713092546
 31
0.0
  0
LINE
  5
5C3
  8
DATA
  6
CONTINUOUS
 62
     7
 10
-30.83756061790627
 20
90.536126713092557
 30
0.0
 11
-30.187560617906289
 21
90.536126713092557
 31
0.0
  0
LINE
  5
5C4
  8
DATA
  6
CONTINUOUS
 62
     7
 10
-30.83756061790627
 20
93.236126713092546
 30
0.0
 11
-30.187560617906289
 21
93.236126713092546
 31
0.0
  0
LINE
  5
5C5
  8
DATA
  6
CONTINUOUS
 62
     7
 10
-30.187560617906289
 20
93.236126713092546
 30
0.0
 11
-30.187560617906289
 21
90.536126713092557
 31
0.0
  0
LINE
  5
5C6
  8
DATA
  6
CONTINUOUS
 62
     7
 10
-33.537560617906308
 20
97.48612671309256
 30
0.0
 11
-40.137560617906452
 21
97.48612671309256
 31
0.0
  0
LINE
  5
5C7
  8
DATA
  6
CONTINUOUS
 62
     7
 10
-33.537560617906308
 20
97.48612671309256
 30
0.0
 11
-33.537560617906308
 21
95.036126713092557
 31
0.0
  0
LINE
  5
5C8
  8
DATA
  6
CONTINUOUS
 62
     7
 10
-40.137560617906452
 20
97.48612671309256
 30
0.0
 11
-40.137560617906452
 21
95.036126713092557
 31
0.0
  0
POLYLINE
  5
5C9
  8
DATA
  6
CONTINUOUS
 62
     7
 66
     1
 10
0.0
 20
0.0
 30
0.0
 70
     1
  0
VERTEX
  5
CB7
  8
DATA
  6
CONTINUOUS
 62
     7
 10
31.958819618164679
 20
91.989205893772564
 30
0.0
  0
VERTEX
  5
CB8
  8
DATA
  6
CONTINUOUS
 62
     7
 10
44.658819618164728
 20
91.989205893772564
 30
0.0
  0
VERTEX
  5
CB9
  8
DATA
  6
CONTINUOUS
 62
     7
 10
44.658819618164728
 20
80.989205893772564
 30
0.0
  0
VERTEX
  5
CBA
  8
DATA
  6
CONTINUOUS
 62
     7
 10
31.958819618164679
 20
80.989205893772564
 30
0.0
  0
SEQEND
  5
CBB
  8
DATA
  6
CONTINUOUS
 62
     7
  0
LINE
  5
5CF
  8
DATA
  6
CONTINUOUS
 62
     7
 10
39.25881961816475
 20
91.989205893772564
 30
0.0
 11
39.25881961816475
 21
80.989205893772564
 31
0.0
  0
LINE
  5
5D0
  8
DATA
  6
CONTINUOUS
 62
     7
 10
33.158819618164841
 20
80.989205893772564
 30
0.0
 11
33.158819618164841
 21
91.989205893772564
 31
0.0
  0
CIRCLE
  5
5D1
  8
DATA
  6
CONTINUOUS
 62
     7
 10
56.037243499996578
 20
86.49930670526291
 30
0.0
 40
2.6800000000000059
  0
LINE
  5
5D2
  8
DATA
  6
CONTINUOUS
 62
     7
 10
56.557243499996567
 20
84.779306705262911
 30
0.0
 11
55.517243499996539
 21
84.779306705262911
 31
0.0
  0
LINE
  5
5D3
  8
DATA
  6
CONTINUOUS
 62
     7
 10
56.557243499996567
 20
88.219306705262895
 30
0.0
 11
55.517243499996539
 21
88.219306705262895
 31
0.0
  0
LINE
  5
5D4
  8
DATA
  6
CONTINUOUS
 62
     7
 10
57.757243499996548
 20
85.979306705262857
 30
0.0
 11
57.757243499996548
 21
87.019306705262906
 31
0.0
  0
LINE
  5
5D5
  8
DATA
  6
CONTINUOUS
 62
     7
 10
54.31724349999655
 20
85.979306705262857
 30
0.0
 11
54.31724349999655
 21
87.019306705262906
 31
0.0
  0
LINE
  5
5D6
  8
DATA
  6
CONTINUOUS
 62
     7
 10
56.557243499996567
 20
84.779306705262911
 30
0.0
 11
56.557243499996567
 21
85.740360066812656
 31
0.0
  0
LINE
  5
5D7
  8
DATA
  6
CONTINUOUS
 62
     7
 10
55.517243499996539
 20
84.779306705262911
 30
0.0
 11
55.517243499996539
 21
85.740360066812656
 31
0.0
  0
LINE
  5
5D8
  8
DATA
  6
CONTINUOUS
 62
     7
 10
54.31724349999655
 20
85.979306705262857
 30
0.0
 11
55.278296861553322
 21
85.979306705262857
 31
0.0
  0
LINE
  5
5D9
  8
DATA
  6
CONTINUOUS
 62
     7
 10
54.31724349999655
 20
87.019306705262906
 30
0.0
 11
55.278296861553322
 21
87.019306705262906
 31
0.0
  0
LINE
  5
5DA
  8
DATA
  6
CONTINUOUS
 62
     7
 10
57.757243499996548
 20
85.979306705262857
 30
0.0
 11
56.796190138439783
 21
85.979306705262857
 31
0.0
  0
LINE
  5
5DB
  8
DATA
  6
CONTINUOUS
 62
     7
 10
55.517243499996539
 20
88.219306705262895
 30
0.0
 11
55.517243499996539
 21
87.25825334371315
 31
0.0
  0
LINE
  5
5DC
  8
DATA
  6
CONTINUOUS
 62
     7
 10
56.557243499996567
 20
88.219306705262895
 30
0.0
 11
56.557243499996567
 21
87.25825334371315
 31
0.0
  0
LINE
  5
5DD
  8
DATA
  6
CONTINUOUS
 62
     7
 10
57.757243499996548
 20
87.019306705262906
 30
0.0
 11
56.796190138439783
 21
87.019306705262906
 31
0.0
  0
ARC
  5
5DE
  8
DATA
  6
CONTINUOUS
 62
     7
 10
56.037243499996578
 20
86.49930670526291
 30
0.0
 40
0.9200000000022957
 50
304.41738871009329
 51
325.58261128965552
  0
ARC
  5
5DF
  8
DATA
  6
CONTINUOUS
 62
     7
 10
56.037243499996578
 20
86.49930670526291
 30
0.0
 40
0.9200000000081283
 50
214.41738871034011
 51
235.58261128990199
  0
ARC
  5
5E0
  8
DATA
  6
CONTINUOUS
 62
     7
 10
56.037243499996578
 20
86.49930670526291
 30
0.0
 40
0.9200000000023599
 50
124.4173887100992
 51
145.5826112896597
  0
ARC
  5
5E1
  8
DATA
  6
CONTINUOUS
 62
     7
 10
56.037243499996578
 20
86.49930670526291
 30
0.0
 40
0.9200000000081283
 50
34.417388710340113
 51
55.582611289905863
  0
CIRCLE
  5
5E2
  8
DATA
  6
CONTINUOUS
 62
     7
 10
22.437243499996551
 20
86.49930670526291
 30
0.0
 40
2.6800000000000059
  0
LINE
  5
5E3
  8
DATA
  6
CONTINUOUS
 62
     7
 10
22.95724349999654
 20
84.779306705262911
 30
0.0
 11
21.91724349999652
 21
84.779306705262911
 31
0.0
  0
LINE
  5
5E4
  8
DATA
  6
CONTINUOUS
 62
     7
 10
22.95724349999654
 20
88.219306705262895
 30
0.0
 11
21.91724349999652
 21
88.219306705262895
 31
0.0
  0
LINE
  5
5E5
  8
DATA
  6
CONTINUOUS
 62
     7
 10
24.157243499996529
 20
85.979306705262857
 30
0.0
 11
24.157243499996529
 21
87.019306705262906
 31
0.0
  0
LINE
  5
5E6
  8
DATA
  6
CONTINUOUS
 62
     7
 10
20.717243499996531
 20
85.979306705262857
 30
0.0
 11
20.717243499996531
 21
87.019306705262906
 31
0.0
  0
LINE
  5
5E7
  8
DATA
  6
CONTINUOUS
 62
     7
 10
22.95724349999654
 20
84.779306705262911
 30
0.0
 11
22.95724349999654
 21
85.740360066812656
 31
0.0
  0
LINE
  5
5E8
  8
DATA
  6
CONTINUOUS
 62
     7
 10
21.91724349999652
 20
84.779306705262911
 30
0.0
 11
21.91724349999652
 21
85.740360066812656
 31
0.0
  0
LINE
  5
5E9
  8
DATA
  6
CONTINUOUS
 62
     7
 10
20.717243499996531
 20
85.979306705262857
 30
0.0
 11
21.678296861553289
 21
85.979306705262857
 31
0.0
  0
LINE
  5
5EA
  8
DATA
  6
CONTINUOUS
 62
     7
 10
20.717243499996531
 20
87.019306705262906
 30
0.0
 11
21.678296861553289
 21
87.019306705262906
 31
0.0
  0
LINE
  5
5EB
  8
DATA
  6
CONTINUOUS
 62
     7
 10
24.157243499996529
 20
85.979306705262857
 30
0.0
 11
23.196190138439761
 21
85.979306705262857
 31
0.0
  0
LINE
  5
5EC
  8
DATA
  6
CONTINUOUS
 62
     7
 10
21.91724349999652
 20
88.219306705262895
 30
0.0
 11
21.91724349999652
 21
87.25825334371315
 31
0.0
  0
LINE
  5
5ED
  8
DATA
  6
CONTINUOUS
 62
     7
 10
22.95724349999654
 20
88.219306705262895
 30
0.0
 11
22.95724349999654
 21
87.25825334371315
 31
0.0
  0
LINE
  5
5EE
  8
DATA
  6
CONTINUOUS
 62
     7
 10
24.157243499996529
 20
87.019306705262906
 30
0.0
 11
23.196190138439761
 21
87.019306705262906
 31
0.0
  0
ARC
  5
5EF
  8
DATA
  6
CONTINUOUS
 62
     7
 10
22.437243499996551
 20
86.49930670526291
 30
0.0
 40
0.9200000000022957
 50
304.41738871009329
 51
325.58261128965552
  0
ARC
  5
5F0
  8
DATA
  6
CONTINUOUS
 62
     7
 10
22.437243499996551
 20
86.49930670526291
 30
0.0
 40
0.9200000000081283
 50
214.41738871034011
 51
235.58261128990199
  0
ARC
  5
5F1
  8
DATA
  6
CONTINUOUS
 62
     7
 10
22.437243499996551
 20
86.49930670526291
 30
0.0
 40
0.9200000000023599
 50
124.4173887100992
 51
145.5826112896597
  0
ARC
  5
5F2
  8
DATA
  6
CONTINUOUS
 62
     7
 10
22.437243499996551
 20
86.49930670526291
 30
0.0
 40
0.9200000000081283
 50
34.417388710340113
 51
55.582611289905863
  0
TEXT
  5
5F3
  8
DATA
 62
     7
 10
43.048188577598033
 20
84.10868646351058
 30
0.0
 40
1.923828125
  1
115V
 50
90.0
 41
0.8
 11
41.124360452598033
 21
84.10868646351058
 31
0.0
 73
     3
  0
POLYLINE
  5
5F4
  8
DATA
  6
CONTINUOUS
 62
     7
 66
     1
 10
0.0
 20
0.0
 30
0.0
 70
   129
  0
VERTEX
  5
CBC
  8
DATA
  6
CONTINUOUS
 62
     7
 10
-68.844955208627354
 20
91.077145089934149
 30
0.0
 42
-0.4142135623730951
  0
VERTEX
  5
CBD
  8
DATA
  6
CONTINUOUS
 62
     7
 10
-68.344955208627354
 20
91.577145089934163
 30
0.0
 42
-0.4142135623730868
  0
VERTEX
  5
CBE
  8
DATA
  6
CONTINUOUS
 62
     7
 10
-67.844955208627354
 20
91.077145089934149
 30
0.0
 42
-0.4142135623730951
  0
VERTEX
  5
CBF
  8
DATA
  6
CONTINUOUS
 62
     7
 10
-68.344955208627354
 20
90.577145089934163
 30
0.0
 42
-0.4142135623731035
  0
VERTEX
  5
CC0
  8
DATA
  6
CONTINUOUS
 62
     7
 10
-68.844955208627354
 20
91.077145089934149
 30
0.0
  0
SEQEND
  5
CC1
  8
DATA
  6
CONTINUOUS
 62
     7
  0
LINE
  5
5FB
  8
DATA
  6
CONTINUOUS
 62
     7
 10
-56.404955208627349
 20
88.057083855392193
 30
0.0
 11
-69.30495520862732
 21
88.057083855392193
 31
0.0
  0
LINE
  5
5FC
  8
DATA
  6
CONTINUOUS
 62
     7
 10
-56.78152520862735
 20
96.397083855392268
 30
0.0
 11
-68.92839520862735
 21
96.397083855392268
 31
0.0
  0
POLYLINE
  5
5FD
  8
DATA
  6
CONTINUOUS
 62
     7
 66
     1
 10
0.0
 20
0.0
 30
0.0
 70
   129
  0
VERTEX
  5
CC2
  8
DATA
  6
CONTINUOUS
 62
     7
 10
-67.464955208627345
 20
93.917145089934209
 30
0.0
 42
-0.4142135623730951
  0
VERTEX
  5
CC3
  8
DATA
  6
CONTINUOUS
 62
     7
 10
-66.964955208627345
 20
94.417145089934195
 30
0.0
 42
-0.4142135623730868
  0
VERTEX
  5
CC4
  8
DATA
  6
CONTINUOUS
 62
     7
 10
-66.464955208627345
 20
93.917145089934209
 30
0.0
 42
-0.4142135623730951
  0
VERTEX
  5
CC5
  8
DATA
  6
CONTINUOUS
 62
     7
 10
-66.964955208627345
 20
93.417145089934209
 30
0.0
 42
-0.4142135623731035
  0
VERTEX
  5
CC6
  8
DATA
  6
CONTINUOUS
 62
     7
 10
-67.464955208627345
 20
93.917145089934209
 30
0.0
  0
SEQEND
  5
CC7
  8
DATA
  6
CONTINUOUS
 62
     7
  0
POLYLINE
  5
604
  8
DATA
  6
CONTINUOUS
 62
     7
 66
     1
 10
0.0
 20
0.0
 30
0.0
 70
   129
  0
VERTEX
  5
CC8
  8
DATA
  6
CONTINUOUS
 62
     7
 10
-64.72495520862735
 20
93.917145089934209
 30
0.0
 42
-0.4142135623730951
  0
VERTEX
  5
CC9
  8
DATA
  6
CONTINUOUS
 62
     7
 10
-64.22495520862735
 20
94.417145089934195
 30
0.0
 42
-0.4142135623730868
  0
VERTEX
  5
CCA
  8
DATA
  6
CONTINUOUS
 62
     7
 10
-63.724955208627343
 20
93.917145089934209
 30
0.0
 42
-0.4142135623730951
  0
VERTEX
  5
CCB
  8
DATA
  6
CONTINUOUS
 62
     7
 10
-64.22495520862735
 20
93.417145089934209
 30
0.0
 42
-0.4142135623731035
  0
VERTEX
  5
CCC
  8
DATA
  6
CONTINUOUS
 62
     7
 10
-64.72495520862735
 20
93.917145089934209
 30
0.0
  0
SEQEND
  5
CCD
  8
DATA
  6
CONTINUOUS
 62
     7
  0
POLYLINE
  5
60B
  8
DATA
  6
CONTINUOUS
 62
     7
 66
     1
 10
0.0
 20
0.0
 30
0.0
 70
   129
  0
VERTEX
  5
CCE
  8
DATA
  6
CONTINUOUS
 62
     7
 10
-59.24495520862731
 20
93.917145089934209
 30
0.0
 42
-0.4142135623730951
  0
VERTEX
  5
CCF
  8
DATA
  6
CONTINUOUS
 62
     7
 10
-58.744955208627317
 20
94.417145089934195
 30
0.0
 42
-0.4142135623730868
  0
VERTEX
  5
CD0
  8
DATA
  6
CONTINUOUS
 62
     7
 10
-58.244955208627317
 20
93.917145089934209
 30
0.0
 42
-0.4142135623730951
  0
VERTEX
  5
CD1
  8
DATA
  6
CONTINUOUS
 62
     7
 10
-58.744955208627317
 20
93.417145089934209
 30
0.0
 42
-0.4142135623731035
  0
VERTEX
  5
CD2
  8
DATA
  6
CONTINUOUS
 62
     7
 10
-59.24495520862731
 20
93.917145089934209
 30
0.0
  0
SEQEND
  5
CD3
  8
DATA
  6
CONTINUOUS
 62
     7
  0
POLYLINE
  5
612
  8
DATA
  6
CONTINUOUS
 62
     7
 66
     1
 10
0.0
 20
0.0
 30
0.0
 70
   129
  0
VERTEX
  5
CD4
  8
DATA
  6
CONTINUOUS
 62
     7
 10
-60.614955208627322
 20
91.077145089934149
 30
0.0
 42
-0.4142135623730951
  0
VERTEX
  5
CD5
  8
DATA
  6
CONTINUOUS
 62
     7
 10
-60.114955208627322
 20
91.577145089934163
 30
0.0
 42
-0.4142135623730868
  0
VERTEX
  5
CD6
  8
DATA
  6
CONTINUOUS
 62
     7
 10
-59.614955208627322
 20
91.077145089934149
 30
0.0
 42
-0.4142135623730951
  0
VERTEX
  5
CD7
  8
DATA
  6
CONTINUOUS
 62
     7
 10
-60.114955208627322
 20
90.577145089934163
 30
0.0
 42
-0.4142135623731035
  0
VERTEX
  5
CD8
  8
DATA
  6
CONTINUOUS
 62
     7
 10
-60.614955208627322
 20
91.077145089934149
 30
0.0
  0
SEQEND
  5
CD9
  8
DATA
  6
CONTINUOUS
 62
     7
  0
POLYLINE
  5
619
  8
DATA
  6
CONTINUOUS
 62
     7
 66
     1
 10
0.0
 20
0.0
 30
0.0
 70
   129
  0
VERTEX
  5
CDA
  8
DATA
  6
CONTINUOUS
 62
     7
 10
-57.864955208627322
 20
91.077145089934149
 30
0.0
 42
-0.4142135623730951
  0
VERTEX
  5
CDB
  8
DATA
  6
CONTINUOUS
 62
     7
 10
-57.364955208627322
 20
91.577145089934163
 30
0.0
 42
-0.4142135623730868
  0
VERTEX
  5
CDC
  8
DATA
  6
CONTINUOUS
 62
     7
 10
-56.864955208627322
 20
91.077145089934149
 30
0.0
 42
-0.4142135623730951
  0
VERTEX
  5
CDD
  8
DATA
  6
CONTINUOUS
 62
     7
 10
-57.364955208627322
 20
90.577145089934163
 30
0.0
 42
-0.4142135623731035
  0
VERTEX
  5
CDE
  8
DATA
  6
CONTINUOUS
 62
     7
 10
-57.864955208627322
 20
91.077145089934149
 30
0.0
  0
SEQEND
  5
CDF
  8
DATA
  6
CONTINUOUS
 62
     7
  0
POLYLINE
  5
620
  8
DATA
  6
CONTINUOUS
 62
     7
 66
     1
 10
0.0
 20
0.0
 30
0.0
 70
   129
  0
VERTEX
  5
CE0
  8
DATA
  6
CONTINUOUS
 62
     7
 10
-66.094955208627354
 20
91.077145089934149
 30
0.0
 42
-0.4142135623730951
  0
VERTEX
  5
CE1
  8
DATA
  6
CONTINUOUS
 62
     7
 10
-65.594955208627354
 20
91.577145089934163
 30
0.0
 42
-0.4142135623730868
  0
VERTEX
  5
CE2
  8
DATA
  6
CONTINUOUS
 62
     7
 10
-65.094955208627354
 20
91.077145089934149
 30
0.0
 42
-0.4142135623730951
  0
VERTEX
  5
CE3
  8
DATA
  6
CONTINUOUS
 62
     7
 10
-65.594955208627354
 20
90.577145089934163
 30
0.0
 42
-0.4142135623731035
  0
VERTEX
  5
CE4
  8
DATA
  6
CONTINUOUS
 62
     7
 10
-66.094955208627354
 20
91.077145089934149
 30
0.0
  0
SEQEND
  5
CE5
  8
DATA
  6
CONTINUOUS
 62
     7
  0
POLYLINE
  5
627
  8
DATA
  6
CONTINUOUS
 62
     7
 66
     1
 10
0.0
 20
0.0
 30
0.0
 70
   129
  0
VERTEX
  5
CE6
  8
DATA
  6
CONTINUOUS
 62
     7
 10
-61.984955208627319
 20
93.917145089934209
 30
0.0
 42
-0.4142135623730951
  0
VERTEX
  5
CE7
  8
DATA
  6
CONTINUOUS
 62
     7
 10
-61.484955208627319
 20
94.417145089934195
 30
0.0
 42
-0.4142135623730868
  0
VERTEX
  5
CE8
  8
DATA
  6
CONTINUOUS
 62
     7
 10
-60.984955208627333
 20
93.917145089934209
 30
0.0
 42
-0.4142135623730951
  0
VERTEX
  5
CE9
  8
DATA
  6
CONTINUOUS
 62
     7
 10
-61.484955208627319
 20
93.417145089934209
 30
0.0
 42
-0.4142135623731035
  0
VERTEX
  5
CEA
  8
DATA
  6
CONTINUOUS
 62
     7
 10
-61.984955208627319
 20
93.917145089934209
 30
0.0
  0
SEQEND
  5
CEB
  8
DATA
  6
CONTINUOUS
 62
     7
  0
POLYLINE
  5
62E
  8
DATA
  6
CONTINUOUS
 62
     7
 66
     1
 10
0.0
 20
0.0
 30
0.0
 70
   129
  0
VERTEX
  5
CEC
  8
DATA
  6
CONTINUOUS
 62
     7
 10
-63.354955208627331
 20
91.077145089934149
 30
0.0
 42
-0.4142135623730951
  0
VERTEX
  5
CED
  8
DATA
  6
CONTINUOUS
 62
     7
 10
-62.854955208627331
 20
91.577145089934163
 30
0.0
 42
-0.4142135623730868
  0
VERTEX
  5
CEE
  8
DATA
  6
CONTINUOUS
 62
     7
 10
-62.354955208627331
 20
91.077145089934149
 30
0.0
 42
-0.4142135623730951
  0
VERTEX
  5
CEF
  8
DATA
  6
CONTINUOUS
 62
     7
 10
-62.854955208627331
 20
90.577145089934163
 30
0.0
 42
-0.4142135623731035
  0
VERTEX
  5
CF0
  8
DATA
  6
CONTINUOUS
 62
     7
 10
-63.354955208627331
 20
91.077145089934149
 30
0.0
  0
SEQEND
  5
CF1
  8
DATA
  6
CONTINUOUS
 62
     7
  0
ARC
  5
635
  8
DATA
  6
CONTINUOUS
 62
     7
 10
-56.404955208627349
 20
90.057083855392193
 30
0.0
 40
2.0
 50
270.0
 51
0.0
  0
LINE
  5
636
  8
DATA
  6
CONTINUOUS
 62
     7
 10
-54.404955208627349
 20
90.057083855392193
 30
0.0
 11
-55.304305208627312
 21
95.157553855392223
 31
0.0
  0
ARC
  5
637
  8
DATA
  6
CONTINUOUS
 62
     7
 10
-56.78152520862735
 20
94.897083855392268
 30
0.0
 40
1.499998001665348
 50
9.9999255496014055
 51
90.0
  0
ARC
  5
638
  8
DATA
  6
CONTINUOUS
 62
     7
 10
-69.30495520862732
 20
90.057083855392193
 30
0.0
 40
2.0
 50
180.0
 51
270.0
  0
LINE
  5
639
  8
DATA
  6
CONTINUOUS
 62
     7
 10
-71.304955208627305
 20
90.057083855392193
 30
0.0
 11
-70.40560520862735
 21
95.157553855392223
 31
0.0
  0
ARC
  5
63A
  8
DATA
  6
CONTINUOUS
 62
     7
 10
-68.92839520862735
 20
94.897083855392268
 30
0.0
 40
1.5
 50
90.0
 51
170.0000744503979
  0
LINE
  5
63B
  8
DATA
  6
CONTINUOUS
 62
     7
 10
-56.082455208627351
 20
87.848583855392192
 30
0.0
 11
-69.62745520862731
 21
87.848583855392192
 31
0.0
  0
LINE
  5
63C
  8
DATA
  6
CONTINUOUS
 62
     7
 10
-56.47785370862735
 20
96.605583855392226
 30
0.0
 11
-69.232067208627342
 21
96.605583855392226
 31
0.0
  0
ARC
  5
63D
  8
DATA
  6
CONTINUOUS
 62
     7
 10
-56.082455208627351
 20
89.948583855392215
 30
0.0
 40
2.1000000000000218
 50
270.0
 51
0.0
  0
LINE
  5
63E
  8
DATA
  6
CONTINUOUS
 62
     7
 10
-53.982455208627329
 20
89.948583855392215
 30
0.0
 11
-54.926772708627283
 21
95.304077355392266
 31
0.0
  0
ARC
  5
63F
  8
DATA
  6
CONTINUOUS
 62
     7
 10
-56.47785370862735
 20
95.030583855392265
 30
0.0
 40
1.574997901748578
 50
9.9999255496007038
 51
89.999999999999986
  0
ARC
  5
640
  8
DATA
  6
CONTINUOUS
 62
     7
 10
-69.62745520862731
 20
89.948583855392215
 30
0.0
 40
2.1000000000000218
 50
180.0
 51
270.0
  0
LINE
  5
641
  8
DATA
  6
CONTINUOUS
 62
     7
 10
-71.727455208627333
 20
89.948583855392215
 30
0.0
 11
-70.783137708627379
 21
95.304077355392266
 31
0.0
  0
ARC
  5
642
  8
DATA
  6
CONTINUOUS
 62
     7
 10
-69.232067208627342
 20
95.030583855392265
 30
0.0
 40
1.574999999999988
 50
90.0
 51
170.0000744503979
  0
POLYLINE
  5
643
  8
DATA
  6
CONTINUOUS
 62
     7
 66
     1
 10
0.0
 20
0.0
 30
0.0
 70
     1
  0
VERTEX
  5
CF2
  8
DATA
  6
CONTINUOUS
 62
     7
 10
-51.5977222965018
 20
90.075240916469397
 30
0.0
  0
VERTEX
  5
CF3
  8
DATA
  6
CONTINUOUS
 62
     7
 10
-48.881938519501922
 20
90.213949088424343
 30
0.0
  0
VERTEX
  5
CF4
  8
DATA
  6
CONTINUOUS
 62
     7
 10
-47.64417143162742
 20
92.635240916469371
 30
0.0
  0
VERTEX
  5
CF5
  8
DATA
  6
CONTINUOUS
 62
     7
 10
-49.122188120752838
 20
94.917824572559454
 30
0.0
  0
VERTEX
  5
CF6
  8
DATA
  6
CONTINUOUS
 62
     7
 10
-51.837971897752738
 20
94.779116400604536
 30
0.0
  0
VERTEX
  5
CF7
  8
DATA
  6
CONTINUOUS
 62
     7
 10
-53.075738985627218
 20
92.357824572559494
 30
0.0
  0
SEQEND
  5
CF8
  8
DATA
  6
CONTINUOUS
 62
     7
  0
CIRCLE
  5
64B
  8
DATA
  6
CONTINUOUS
 62
     7
 10
-50.359955208627333
 20
92.496532744514425
 30
0.0
 40
1.149999999999977
  0
CIRCLE
  5
64C
  8
DATA
  6
CONTINUOUS
 62
     7
 10
-50.359955208627333
 20
92.496532744514425
 30
0.0
 40
1.759905868717929
  0
POLYLINE
  5
64D
  8
DATA
  6
CONTINUOUS
 62
     7
 66
     1
 10
0.0
 20
0.0
 30
0.0
 70
     1
  0
VERTEX
  5
CF9
  8
DATA
  6
CONTINUOUS
 62
     7
 10
-76.587722296501809
 20
90.075240916469397
 30
0.0
  0
VERTEX
  5
CFA
  8
DATA
  6
CONTINUOUS
 62
     7
 10
-73.871938519501924
 20
90.213949088424343
 30
0.0
  0
VERTEX
  5
CFB
  8
DATA
  6
CONTINUOUS
 62
     7
 10
-72.634171431627422
 20
92.635240916469371
 30
0.0
  0
VERTEX
  5
CFC
  8
DATA
  6
CONTINUOUS
 62
     7
 10
-74.112188120752833
 20
94.917824572559454
 30
0.0
  0
VERTEX
  5
CFD
  8
DATA
  6
CONTINUOUS
 62
     7
 10
-76.827971897752732
 20
94.779116400604536
 30
0.0
  0
VERTEX
  5
CFE
  8
DATA
  6
CONTINUOUS
 62
     7
 10
-78.065738985627235
 20
92.357824572559494
 30
0.0
  0
SEQEND
  5
CFF
  8
DATA
  6
CONTINUOUS
 62
     7
  0
CIRCLE
  5
655
  8
DATA
  6
CONTINUOUS
 62
     7
 10
-75.349955208627335
 20
92.496532744514425
 30
0.0
 40
1.149999999999977
  0
CIRCLE
  5
656
  8
DATA
  6
CONTINUOUS
 62
     7
 10
-75.349955208627335
 20
92.496532744514425
 30
0.0
 40
1.759905868717929
  0
POLYLINE
  5
657
  8
DATA
  6
CONTINUOUS
 62
     7
 66
     1
 10
0.0
 20
0.0
 30
0.0
 70
   129
  0
VERTEX
  5
D00
  8
DATA
  6
CONTINUOUS
 62
     7
 10
5.1588196181646131
 20
69.996579658067091
 30
0.0
 42
-0.4142135623730951
  0
VERTEX
  5
D01
  8
DATA
  6
CONTINUOUS
 62
     7
 10
3.1588196181646131
 20
67.996579658067091
 30
0.0
  0
VERTEX
  5
D02
  8
DATA
  6
CONTINUOUS
 62
     7
 10
-92.841180381835386
 20
67.996579658067091
 30
0.0
 42
-0.4142135623730971
  0
VERTEX
  5
D03
  8
DATA
  6
CONTINUOUS
 62
     7
 10
-94.841180381835386
 20
69.996579658067091
 30
0.0
  0
VERTEX
  5
D04
  8
DATA
  6
CONTINUOUS
 62
     7
 10
-94.841180381835386
 20
78.996579658067091
 30
0.0
 42
-0.4142135623730951
  0
VERTEX
  5
D05
  8
DATA
  6
CONTINUOUS
 62
     7
 10
-92.841180381835386
 20
80.996579658067091
 30
0.0
  0
VERTEX
  5
D06
  8
DATA
  6
CONTINUOUS
 62
     7
 10
3.1588196181646131
 20
80.996579658067091
 30
0.0
 42
-0.4142135623730951
  0
VERTEX
  5
D07
  8
DATA
  6
CONTINUOUS
 62
     7
 10
5.1588196181646131
 20
78.996579658067091
 30
0.0
  0
SEQEND
  5
D08
  8
DATA
  6
CONTINUOUS
 62
     7
  0
POLYLINE
  5
661
  8
DATA
  6
CONTINUOUS
 62
     7
 66
     1
 10
0.0
 20
0.0
 30
0.0
 70
   129
  0
VERTEX
  5
D09
  8
DATA
  6
CONTINUOUS
 62
     7
 10
5.1562750049943693
 20
84.378411787545133
 30
0.0
 42
-0.4142135623730951
  0
VERTEX
  5
D0A
  8
DATA
  6
CONTINUOUS
 62
     7
 10
3.1562750049943702
 20
82.378411787545119
 30
0.0
  0
VERTEX
  5
D0B
  8
DATA
  6
CONTINUOUS
 62
     7
 10
-43.84372499500563
 20
82.378411787545119
 30
0.0
 42
-0.4142135623730951
  0
VERTEX
  5
D0C
  8
DATA
  6
CONTINUOUS
 62
     7
 10
-45.84372499500563
 20
84.378411787545133
 30
0.0
  0
VERTEX
  5
D0D
  8
DATA
  6
CONTINUOUS
 62
     7
 10
-45.84372499500563
 20
103.1329665405305
 30
0.0
 42
-0.4142135623730951
  0
VERTEX
  5
D0E
  8
DATA
  6
CONTINUOUS
 62
     7
 10
-43.84372499500563
 20
105.1329665405305
 30
0.0
  0
VERTEX
  5
D0F
  8
DATA
  6
CONTINUOUS
 62
     7
 10
3.1562750049943702
 20
105.1329665405305
 30
0.0
 42
-0.4142135623730951
  0
VERTEX
  5
D10
  8
DATA
  6
CONTINUOUS
 62
     7
 10
5.1562750049943693
 20
103.1329665405305
 30
0.0
  0
SEQEND
  5
D11
  8
DATA
  6
CONTINUOUS
 62
     7
  0
POLYLINE
  5
66B
  8
DATA
  6
CONTINUOUS
 62
     7
 66
     1
 10
0.0
 20
0.0
 30
0.0
 70
   129
  0
VERTEX
  5
D12
  8
DATA
  6
CONTINUOUS
 62
     7
 10
-46.841180381835379
 20
84.410574503285133
 30
0.0
 42
-0.4142135623730951
  0
VERTEX
  5
D13
  8
DATA
  6
CONTINUOUS
 62
     7
 10
-48.841180381835379
 20
82.410574503285147
 30
0.0
  0
VERTEX
  5
D14
  8
DATA
  6
CONTINUOUS
 62
     7
 10
-92.841180381835386
 20
82.410574503285147
 30
0.0
 42
-0.4142135623730951
  0
VERTEX
  5
D15
  8
DATA
  6
CONTINUOUS
 62
     7
 10
-94.841180381835386
 20
84.410574503285133
 30
0.0
  0
VERTEX
  5
D16
  8
DATA
  6
CONTINUOUS
 62
     7
 10
-94.841180381835386
 20
103.1329665405305
 30
0.0
 42
-0.4142135623730951
  0
VERTEX
  5
D17
  8
DATA
  6
CONTINUOUS
 62
     7
 10
-92.841180381835386
 20
105.1329665405305
 30
0.0
  0
VERTEX
  5
D18
  8
DATA
  6
CONTINUOUS
 62
     7
 10
-48.841180381835379
 20
105.1329665405305
 30
0.0
 42
-0.4142135623730951
  0
VERTEX
  5
D19
  8
DATA
  6
CONTINUOUS
 62
     7
 10
-46.841180381835379
 20
103.1329665405305
 30
0.0
  0
SEQEND
  5
D1A
  8
DATA
  6
CONTINUOUS
 62
     7
  0
TEXT
  5
675
  8
DATA
 62
     7
 10
52.450721513579772
 20
100.84907080976311
 30
0.0
 40
1.7314453125
  1
100-120～50/60Hz  30 WATTS
 50
180.0
 41
0.8
 11
52.450721513579772
 21
99.117625497263106
 31
0.0
 73
     3
  0
TEXT
  5
676
  8
DATA
 62
     7
 10
52.450721513579772
 20
103.77775276532719
 30
0.0
 40
1.7314453125
  1
100-120～50/60Hz  30 WATTS
 50
180.0
 41
0.8
 11
52.450721513579772
 21
102.04630745282719
 31
0.0
 73
     3
  0
TEXT
  5
677
  8
DATA
 62
     7
 10
-30.53801978588811
 20
79.911776502888841
 30
0.0
 40
2.1162109375
  1
LINK TO dbx 480R REMOTE
 50
180.0
 41
0.8
 11
-30.53801978588811
 21
77.795565565388841
 31
0.0
 73
     3
  0
TEXT
  5
678
  8
DATA
 62
     7
 10
-56.339090194357787
 20
103.21687064891999
 30
0.0
 40
2.1162109375
  1
PC RS-232
 50
180.0
 41
0.8
 11
-56.339090194357787
 21
101.10065971141999
 31
0.0
 73
     3
  0
TEXT
  5
679
  8
DATA
 62
     7
 10
-81.108525318171232
 20
102.88014121823259
 30
0.0
 40
2.1162109375
  1
ENABLE
 50
180.0
 41
0.8
 11
-81.108525318171232
 21
100.76393028073259
 31
0.0
 73
     3
  0
TEXT
  5
67A
  8
DATA
 62
     7
 10
-5.7911020631385091
 20
103.1536000796074
 30
0.0
 40
2.1162109375
  1
LINK  TO NETWORK MASTER
 50
180.0
 41
0.8
 11
-5.7911020631385091
 21
101.0373891421074
 31
0.0
 73
     3
  0
LINE
  5
67B
  8
DATA
  6
CONTINUOUS
 62
     7
 10
-53.075714650337218
 20
-77.846341330669702
 30
0.0
 11
-47.644147096337399
 21
-77.846341330669702
 31
0.0
  0
LINE
  5
67C
  8
DATA
  6
CONTINUOUS
 62
     7
 10
-72.634147096337784
 20
-77.846341330669702
 30
0.0
 11
-78.065714650337583
 21
-77.846341330669702
 31
0.0
  0
LINE
  5
67D
  8
DATA
  6
CONTINUOUS
 62
     7
 10
-53.982430873337357
 20
-77.846341330669702
 30
0.0
 11
-71.727430873337696
 21
-77.846341330669702
 31
0.0
  0
LINE
  5
67E
  8
DATA
  6
CONTINUOUS
 62
     7
 10
-78.065714650337583
 20
-77.846341330669702
 30
0.0
 11
-78.065714650337583
 21
-79.846341330669702
 31
0.0
  0
LINE
  5
67F
  8
DATA
  6
CONTINUOUS
 62
     7
 10
-72.634147096337784
 20
-77.846341330669702
 30
0.0
 11
-72.634147096337784
 21
-79.846341330669702
 31
0.0
  0
LINE
  5
680
  8
DATA
  6
CONTINUOUS
 62
     7
 10
-71.727430873337696
 20
-77.846341330669702
 30
0.0
 11
-71.727430873337696
 21
-79.846341330669702
 31
0.0
  0
LINE
  5
681
  8
DATA
  6
CONTINUOUS
 62
     7
 10
-53.982430873337357
 20
-77.846341330669702
 30
0.0
 11
-53.982430873337357
 21
-79.846341330669702
 31
0.0
  0
LINE
  5
682
  8
DATA
  6
CONTINUOUS
 62
     7
 10
-53.075714650337218
 20
-77.846341330669702
 30
0.0
 11
-53.075714650337218
 21
-79.846341330669702
 31
0.0
  0
LINE
  5
683
  8
DATA
  6
CONTINUOUS
 62
     7
 10
-47.644147096337399
 20
-77.846341330669702
 30
0.0
 11
-47.644147096337399
 21
-79.846341330669702
 31
0.0
  0
LINE
  5
684
  8
DATA
  6
CONTINUOUS
 62
     7
 10
-76.587697961212186
 20
-79.846341330669702
 30
0.0
 11
-76.587697961212186
 21
-77.846341330669702
 31
0.0
  0
LINE
  5
685
  8
DATA
  6
CONTINUOUS
 62
     7
 10
-73.871914184212258
 20
-79.846341330669702
 30
0.0
 11
-73.871914184212258
 21
-77.846341330669702
 31
0.0
  0
LINE
  5
686
  8
DATA
  6
CONTINUOUS
 62
     7
 10
-51.597697961211779
 20
-79.846341330669702
 30
0.0
 11
-51.597697961211779
 21
-77.846341330669702
 31
0.0
  0
LINE
  5
687
  8
DATA
  6
CONTINUOUS
 62
     7
 10
-48.881914184211901
 20
-79.846341330669702
 30
0.0
 11
-48.881914184211901
 21
-77.846341330669702
 31
0.0
  0
LINE
  5
688
  8
DATA
  6
CONTINUOUS
 62
     7
 10
-44.338419175422459
 20
-78.847879351415543
 30
0.0
 11
-29.338419175422761
 21
-78.847879351415543
 31
0.0
  0
LINE
  5
689
  8
DATA
  6
CONTINUOUS
 62
     7
 10
-29.338419175422761
 20
-78.847879351415543
 30
0.0
 11
-29.338419175422761
 21
-79.847879351415543
 31
0.0
  0
LINE
  5
68A
  8
DATA
  6
CONTINUOUS
 62
     7
 10
-44.338419175422459
 20
-78.847879351415543
 30
0.0
 11
-44.338419175422459
 21
-79.847879351415543
 31
0.0
  0
LINE
  5
68B
  8
DATA
  6
CONTINUOUS
 62
     7
 10
-1.1157146503372311
 20
-77.846341330669702
 30
0.0
 11
4.3158529036625941
 21
-77.846341330669702
 31
0.0
  0
LINE
  5
68C
  8
DATA
  6
CONTINUOUS
 62
     7
 10
-20.674147096337791
 20
-77.846341330669702
 30
0.0
 11
-26.105714650337589
 21
-77.846341330669702
 31
0.0
  0
LINE
  5
68D
  8
DATA
  6
CONTINUOUS
 62
     7
 10
-2.0224308733373699
 20
-77.846341330669702
 30
0.0
 11
-19.76743087333768
 21
-77.846341330669702
 31
0.0
  0
LINE
  5
68E
  8
DATA
  6
CONTINUOUS
 62
     7
 10
-26.105714650337589
 20
-77.846341330669702
 30
0.0
 11
-26.105714650337589
 21
-79.846341330669702
 31
0.0
  0
LINE
  5
68F
  8
DATA
  6
CONTINUOUS
 62
     7
 10
-20.674147096337791
 20
-77.846341330669702
 30
0.0
 11
-20.674147096337791
 21
-79.846341330669702
 31
0.0
  0
LINE
  5
690
  8
DATA
  6
CONTINUOUS
 62
     7
 10
-19.76743087333768
 20
-77.846341330669702
 30
0.0
 11
-19.76743087333768
 21
-79.846341330669702
 31
0.0
  0
LINE
  5
691
  8
DATA
  6
CONTINUOUS
 62
     7
 10
-2.0224308733373699
 20
-77.846341330669702
 30
0.0
 11
-2.0224308733373699
 21
-79.846341330669702
 31
0.0
  0
LINE
  5
692
  8
DATA
  6
CONTINUOUS
 62
     7
 10
-1.1157146503372311
 20
-77.846341330669702
 30
0.0
 11
-1.1157146503372311
 21
-79.846341330669702
 31
0.0
  0
LINE
  5
693
  8
DATA
  6
CONTINUOUS
 62
     7
 10
4.3158529036625941
 20
-77.846341330669702
 30
0.0
 11
4.3158529036625941
 21
-79.846341330669702
 31
0.0
  0
LINE
  5
694
  8
DATA
  6
CONTINUOUS
 62
     7
 10
-24.627697961212181
 20
-79.846341330669702
 30
0.0
 11
-24.627697961212181
 21
-77.846341330669702
 31
0.0
  0
LINE
  5
695
  8
DATA
  6
CONTINUOUS
 62
     7
 10
-21.911914184212279
 20
-79.846341330669702
 30
0.0
 11
-21.911914184212279
 21
-77.846341330669702
 31
0.0
  0
LINE
  5
696
  8
DATA
  6
CONTINUOUS
 62
     7
 10
0.3623020387882079
 20
-79.846341330669702
 30
0.0
 11
0.3623020387882079
 21
-77.846341330669702
 31
0.0
  0
LINE
  5
697
  8
DATA
  6
CONTINUOUS
 62
     7
 10
3.078085815788107
 20
-79.846341330669702
 30
0.0
 11
3.078085815788107
 21
-77.846341330669702
 31
0.0
  0
LINE
  5
698
  8
DATA
  6
CONTINUOUS
 62
     7
 10
69.145114677961118
 20
-281.84638818737108
 30
0.0
 11
84.445114677961186
 21
-281.84638818737108
 31
0.0
  0
LINE
  5
699
  8
DATA
  6
CONTINUOUS
 62
     7
 10
69.145114677961118
 20
-281.84638818737108
 30
0.0
 11
69.145114677961118
 21
-279.84638818737108
 31
0.0
  0
LINE
  5
69A
  8
DATA
  6
CONTINUOUS
 62
     7
 10
84.445114677961186
 20
-281.84638818737108
 30
0.0
 11
84.445114677961186
 21
-279.84638818737108
 31
0.0
  0
LINE
  5
69B
  8
DATA
  6
CONTINUOUS
 62
     7
 10
71.812042135343731
 20
-284.84638818737108
 30
0.0
 11
81.778187220578516
 21
-284.84638818737108
 31
0.0
  0
LINE
  5
69C
  8
DATA
  6
CONTINUOUS
 62
     7
 10
81.778187220578516
 20
-284.84638818737108
 30
0.0
 11
81.778187220578516
 21
-281.84638818737108
 31
0.0
  0
LINE
  5
69D
  8
DATA
  6
CONTINUOUS
 62
     7
 10
71.812042135343731
 20
-284.84638818737108
 30
0.0
 11
71.812042135343731
 21
-281.84638818737108
 31
0.0
  0
CIRCLE
  5
69E
  8
DATA
  6
CONTINUOUS
 62
     7
 10
-118.5460246773021
 20
-399.04501702362887
 30
0.0
 40
2.799999999999883
  0
POLYLINE
  5
69F
  8
DATA
  6
CONTINUOUS
 62
     7
 66
     1
 10
0.0
 20
0.0
 30
0.0
 70
     1
  0
VERTEX
  5
D1B
  8
DATA
  6
CONTINUOUS
 62
     7
 10
-117.14602467730229
 20
-399.04501702362887
 30
0.0
  0
VERTEX
  5
D1C
  8
DATA
  6
CONTINUOUS
 62
     7
 10
-117.8460246773021
 20
-397.83258145833059
 30
0.0
  0
VERTEX
  5
D1D
  8
DATA
  6
CONTINUOUS
 62
     7
 10
-119.2460246773021
 20
-397.83258145833059
 30
0.0
  0
VERTEX
  5
D1E
  8
DATA
  6
CONTINUOUS
 62
     7
 10
-119.94602467730201
 20
-399.04501702362887
 30
0.0
  0
VERTEX
  5
D1F
  8
DATA
  6
CONTINUOUS
 62
     7
 10
-119.2460246773021
 20
-400.25745258892709
 30
0.0
  0
VERTEX
  5
D20
  8
DATA
  6
CONTINUOUS
 62
     7
 10
-117.8460246773021
 20
-400.25745258892709
 30
0.0
  0
SEQEND
  5
D21
  8
DATA
  6
CONTINUOUS
 62
     7
  0
CIRCLE
  5
6A7
  8
DATA
  6
CONTINUOUS
 62
     7
 10
-118.5460246773021
 20
-436.04501702362887
 30
0.0
 40
2.799999999999883
  0
POLYLINE
  5
6A8
  8
DATA
  6
CONTINUOUS
 62
     7
 66
     1
 10
0.0
 20
0.0
 30
0.0
 70
     1
  0
VERTEX
  5
D22
  8
DATA
  6
CONTINUOUS
 62
     7
 10
-117.14602467730229
 20
-436.04501702362887
 30
0.0
  0
VERTEX
  5
D23
  8
DATA
  6
CONTINUOUS
 62
     7
 10
-117.8460246773021
 20
-434.83258145833048
 30
0.0
  0
VERTEX
  5
D24
  8
DATA
  6
CONTINUOUS
 62
     7
 10
-119.2460246773021
 20
-434.83258145833048
 30
0.0
  0
VERTEX
  5
D25
  8
DATA
  6
CONTINUOUS
 62
     7
 10
-119.94602467730201
 20
-436.04501702362887
 30
0.0
  0
VERTEX
  5
D26
  8
DATA
  6
CONTINUOUS
 62
     7
 10
-119.2460246773021
 20
-437.25745258892709
 30
0.0
  0
VERTEX
  5
D27
  8
DATA
  6
CONTINUOUS
 62
     7
 10
-117.8460246773021
 20
-437.25745258892709
 30
0.0
  0
SEQEND
  5
D28
  8
DATA
  6
CONTINUOUS
 62
     7
  0
LINE
  5
6B0
  8
DATA
  6
CONTINUOUS
 62
     7
 10
-119.8331983324268
 20
-282.84638818737119
 30
0.0
 11
-117.2331983324268
 21
-282.84638818737119
 31
0.0
  0
LINE
  5
6B1
  8
DATA
  6
CONTINUOUS
 62
     7
 10
-121.3331983324268
 20
-281.34638818737108
 30
0.0
 11
-121.3331983324268
 21
-279.84638818737108
 31
0.0
  0
LINE
  5
6B2
  8
DATA
  6
CONTINUOUS
 62
     7
 10
-115.7331983324268
 20
-281.34638818737108
 30
0.0
 11
-115.7331983324268
 21
-279.84638818737108
 31
0.0
  0
ARC
  5
6B3
  8
DATA
  6
CONTINUOUS
 62
     7
 10
-119.8331983324268
 20
-281.34638818737108
 30
0.0
 40
1.5
 50
180.0
 51
270.0
  0
ARC
  5
6B4
  8
DATA
  6
CONTINUOUS
 62
     7
 10
-117.2331983324268
 20
-281.34638818737108
 30
0.0
 40
1.5
 50
270.0
 51
0.0
  0
ARC
  5
6B5
  8
DATA
  6
CONTINUOUS
 62
     7
 10
-36.613193427372842
 20
-158.8463881873711
 30
0.0
 40
0.75
 50
90.0
 51
270.0
  0
ARC
  5
6B6
  8
DATA
  6
CONTINUOUS
 62
     7
 10
-22.413193427372789
 20
-158.8463881873711
 30
0.0
 40
0.75
 50
270.0
 51
90.0
  0
LINE
  5
6B7
  8
DATA
  6
CONTINUOUS
 62
     7
 10
-36.613193427372842
 20
-158.0963881873711
 30
0.0
 11
-22.449999999999999
 21
-158.0963881873711
 31
0.0
  0
LINE
  5
6B8
  8
DATA
  6
CONTINUOUS
 62
     7
 10
-22.413193427372789
 20
-159.5963881873711
 30
0.0
 11
-36.61319300351758
 21
-159.5963881873711
 31
0.0
  0
ARC
  5
6B9
  8
DATA
  6
CONTINUOUS
 62
     7
 10
-36.613193427372842
 20
-153.8463881873711
 30
0.0
 40
0.75
 50
90.0
 51
270.0
  0
ARC
  5
6BA
  8
DATA
  6
CONTINUOUS
 62
     7
 10
-22.413193427372789
 20
-153.8463881873711
 30
0.0
 40
0.75
 50
270.0
 51
90.0
  0
LINE
  5
6BB
  8
DATA
  6
CONTINUOUS
 62
     7
 10
-36.613193427372842
 20
-153.0963881873711
 30
0.0
 11
-22.449999999999999
 21
-153.0963881873711
 31
0.0
  0
LINE
  5
6BC
  8
DATA
  6
CONTINUOUS
 62
     7
 10
-22.413193427372789
 20
-154.5963881873711
 30
0.0
 11
-36.61319300351758
 21
-154.5963881873711
 31
0.0
  0
ARC
  5
6BD
  8
DATA
  6
CONTINUOUS
 62
     7
 10
-36.613193427372842
 20
-148.8463881873711
 30
0.0
 40
0.75
 50
90.0
 51
270.0
  0
ARC
  5
6BE
  8
DATA
  6
CONTINUOUS
 62
     7
 10
-22.413193427372789
 20
-148.8463881873711
 30
0.0
 40
0.75
 50
270.0
 51
90.0
  0
LINE
  5
6BF
  8
DATA
  6
CONTINUOUS
 62
     7
 10
-36.613193427372842
 20
-148.0963881873711
 30
0.0
 11
-22.449999999999999
 21
-148.0963881873711
 31
0.0
  0
LINE
  5
6C0
  8
DATA
  6
CONTINUOUS
 62
     7
 10
-22.413193427372789
 20
-149.5963881873711
 30
0.0
 11
-36.61319300351758
 21
-149.5963881873711
 31
0.0
  0
ARC
  5
6C1
  8
DATA
  6
CONTINUOUS
 62
     7
 10
-36.613193427372842
 20
-143.8463881873711
 30
0.0
 40
0.75
 50
90.0
 51
270.0
  0
ARC
  5
6C2
  8
DATA
  6
CONTINUOUS
 62
     7
 10
-22.413193427372789
 20
-143.8463881873711
 30
0.0
 40
0.75
 50
270.0
 51
90.0
  0
LINE
  5
6C3
  8
DATA
  6
CONTINUOUS
 62
     7
 10
-36.613193427372842
 20
-143.0963881873711
 30
0.0
 11
-22.449999999999999
 21
-143.0963881873711
 31
0.0
  0
LINE
  5
6C4
  8
DATA
  6
CONTINUOUS
 62
     7
 10
-22.413193427372789
 20
-144.5963881873711
 30
0.0
 11
-36.61319300351758
 21
-144.5963881873711
 31
0.0
  0
ARC
  5
6C5
  8
DATA
  6
CONTINUOUS
 62
     7
 10
-36.613193427372842
 20
-138.84638818737099
 30
0.0
 40
0.75
 50
90.0
 51
270.0
  0
ARC
  5
6C6
  8
DATA
  6
CONTINUOUS
 62
     7
 10
-22.413193427372789
 20
-138.84638818737099
 30
0.0
 40
0.75
 50
270.0
 51
90.0
  0
LINE
  5
6C7
  8
DATA
  6
CONTINUOUS
 62
     7
 10
-36.613193427372842
 20
-138.0963881873711
 30
0.0
 11
-22.449999999999999
 21
-138.0963881873711
 31
0.0
  0
LINE
  5
6C8
  8
DATA
  6
CONTINUOUS
 62
     7
 10
-22.413193427372789
 20
-139.5963881873711
 30
0.0
 11
-36.61319300351758
 21
-139.5963881873711
 31
0.0
  0
ARC
  5
6C9
  8
DATA
  6
CONTINUOUS
 62
     7
 10
-36.613193427372842
 20
-133.84638818737099
 30
0.0
 40
0.75
 50
90.0
 51
270.0
  0
ARC
  5
6CA
  8
DATA
  6
CONTINUOUS
 62
     7
 10
-22.413193427372789
 20
-133.84638818737099
 30
0.0
 40
0.75
 50
270.0
 51
90.0
  0
LINE
  5
6CB
  8
DATA
  6
CONTINUOUS
 62
     7
 10
-36.613193427372842
 20
-133.0963881873711
 30
0.0
 11
-22.449999999999999
 21
-133.0963881873711
 31
0.0
  0
LINE
  5
6CC
  8
DATA
  6
CONTINUOUS
 62
     7
 10
-22.413193427372789
 20
-134.59638818737099
 30
0.0
 11
-36.61319300351758
 21
-134.59638818737099
 31
0.0
  0
ARC
  5
6CD
  8
DATA
  6
CONTINUOUS
 62
     7
 10
-36.613193427372842
 20
-128.8463881873711
 30
0.0
 40
0.75
 50
90.0
 51
270.0
  0
ARC
  5
6CE
  8
DATA
  6
CONTINUOUS
 62
     7
 10
-22.413193427372789
 20
-128.8463881873711
 30
0.0
 40
0.75
 50
270.0
 51
90.0
  0
LINE
  5
6CF
  8
DATA
  6
CONTINUOUS
 62
     7
 10
-36.613193427372842
 20
-128.0963881873711
 30
0.0
 11
-22.449999999999999
 21
-128.0963881873711
 31
0.0
  0
LINE
  5
6D0
  8
DATA
  6
CONTINUOUS
 62
     7
 10
-22.413193427372789
 20
-129.59638818737099
 30
0.0
 11
-36.61319300351758
 21
-129.59638818737099
 31
0.0
  0
ARC
  5
6D1
  8
DATA
  6
CONTINUOUS
 62
     7
 10
-36.613193427372842
 20
-123.8463881873711
 30
0.0
 40
0.75
 50
90.0
 51
270.0
  0
ARC
  5
6D2
  8
DATA
  6
CONTINUOUS
 62
     7
 10
-22.413193427372789
 20
-123.8463881873711
 30
0.0
 40
0.75
 50
270.0
 51
90.0
  0
LINE
  5
6D3
  8
DATA
  6
CONTINUOUS
 62
     7
 10
-36.613193427372842
 20
-123.09638818737101
 30
0.0
 11
-22.449999999999999
 21
-123.09638818737101
 31
0.0
  0
LINE
  5
6D4
  8
DATA
  6
CONTINUOUS
 62
     7
 10
-22.413193427372789
 20
-124.5963881873711
 30
0.0
 11
-36.61319300351758
 21
-124.5963881873711
 31
0.0
  0
ARC
  5
6D5
  8
DATA
  6
CONTINUOUS
 62
     7
 10
-36.613193427372842
 20
-118.84638818737101
 30
0.0
 40
0.75
 50
90.0
 51
270.0
  0
ARC
  5
6D6
  8
DATA
  6
CONTINUOUS
 62
     7
 10
-22.413193427372789
 20
-118.84638818737101
 30
0.0
 40
0.75
 50
270.0
 51
90.0
  0
LINE
  5
6D7
  8
DATA
  6
CONTINUOUS
 62
     7
 10
-36.613193427372842
 20
-118.09638818737101
 30
0.0
 11
-22.449999999999999
 21
-118.09638818737101
 31
0.0
  0
LINE
  5
6D8
  8
DATA
  6
CONTINUOUS
 62
     7
 10
-22.413193427372789
 20
-119.5963881873711
 30
0.0
 11
-36.61319300351758
 21
-119.5963881873711
 31
0.0
  0
ARC
  5
6D9
  8
DATA
  6
CONTINUOUS
 62
     7
 10
-36.613193427372842
 20
-113.84638818737101
 30
0.0
 40
0.75
 50
90.0
 51
270.0
  0
ARC
  5
6DA
  8
DATA
  6
CONTINUOUS
 62
     7
 10
-22.413193427372789
 20
-113.84638818737101
 30
0.0
 40
0.75
 50
270.0
 51
90.0
  0
LINE
  5
6DB
  8
DATA
  6
CONTINUOUS
 62
     7
 10
-36.613193427372842
 20
-113.0963881873711
 30
0.0
 11
-22.449999999999999
 21
-113.0963881873711
 31
0.0
  0
LINE
  5
6DC
  8
DATA
  6
CONTINUOUS
 62
     7
 10
-22.413193427372789
 20
-114.5963881873711
 30
0.0
 11
-36.61319300351758
 21
-114.5963881873711
 31
0.0
  0
ARC
  5
6DD
  8
DATA
  6
CONTINUOUS
 62
     7
 10
-36.613193427372842
 20
-108.84638818737101
 30
0.0
 40
0.75
 50
90.0
 51
270.0
  0
ARC
  5
6DE
  8
DATA
  6
CONTINUOUS
 62
     7
 10
-22.413193427372789
 20
-108.84638818737101
 30
0.0
 40
0.75
 50
270.0
 51
90.0
  0
LINE
  5
6DF
  8
DATA
  6
CONTINUOUS
 62
     7
 10
-36.613193427372842
 20
-108.0963881873711
 30
0.0
 11
-22.449999999999999
 21
-108.0963881873711
 31
0.0
  0
LINE
  5
6E0
  8
DATA
  6
CONTINUOUS
 62
     7
 10
-22.413193427372789
 20
-109.59638818737101
 30
0.0
 11
-36.61319300351758
 21
-109.59638818737101
 31
0.0
  0
ARC
  5
6E1
  8
DATA
  6
CONTINUOUS
 62
     7
 10
-36.613193427372842
 20
-103.8463881873711
 30
0.0
 40
0.75
 50
90.0
 51
270.0
  0
ARC
  5
6E2
  8
DATA
  6
CONTINUOUS
 62
     7
 10
-22.413193427372789
 20
-103.8463881873711
 30
0.0
 40
0.75
 50
270.0
 51
90.0
  0
LINE
  5
6E3
  8
DATA
  6
CONTINUOUS
 62
     7
 10
-36.613193427372842
 20
-103.0963881873711
 30
0.0
 11
-22.449999999999999
 21
-103.0963881873711
 31
0.0
  0
LINE
  5
6E4
  8
DATA
  6
CONTINUOUS
 62
     7
 10
-22.413193427372789
 20
-104.59638818737101
 30
0.0
 11
-36.61319300351758
 21
-104.59638818737101
 31
0.0
  0
ARC
  5
6E5
  8
DATA
  6
CONTINUOUS
 62
     7
 10
-61.613193427372849
 20
-158.8463881873711
 30
0.0
 40
0.75
 50
90.0
 51
270.0
  0
ARC
  5
6E6
  8
DATA
  6
CONTINUOUS
 62
     7
 10
-47.413193427372789
 20
-158.8463881873711
 30
0.0
 40
0.75
 50
270.0
 51
90.0
  0
LINE
  5
6E7
  8
DATA
  6
CONTINUOUS
 62
     7
 10
-61.613193427372849
 20
-158.0963881873711
 30
0.0
 11
-47.450000000000003
 21
-158.0963881873711
 31
0.0
  0
LINE
  5
6E8
  8
DATA
  6
CONTINUOUS
 62
     7
 10
-47.413193427372789
 20
-159.5963881873711
 30
0.0
 11
-61.61319300351758
 21
-159.5963881873711
 31
0.0
  0
ARC
  5
6E9
  8
DATA
  6
CONTINUOUS
 62
     7
 10
-61.613193427372849
 20
-153.8463881873711
 30
0.0
 40
0.75
 50
90.0
 51
270.0
  0
ARC
  5
6EA
  8
DATA
  6
CONTINUOUS
 62
     7
 10
-47.413193427372789
 20
-153.8463881873711
 30
0.0
 40
0.75
 50
270.0
 51
90.0
  0
LINE
  5
6EB
  8
DATA
  6
CONTINUOUS
 62
     7
 10
-61.613193427372849
 20
-153.0963881873711
 30
0.0
 11
-47.450000000000003
 21
-153.0963881873711
 31
0.0
  0
LINE
  5
6EC
  8
DATA
  6
CONTINUOUS
 62
     7
 10
-47.413193427372789
 20
-154.5963881873711
 30
0.0
 11
-61.61319300351758
 21
-154.5963881873711
 31
0.0
  0
ARC
  5
6ED
  8
DATA
  6
CONTINUOUS
 62
     7
 10
-61.613193427372849
 20
-148.8463881873711
 30
0.0
 40
0.75
 50
90.0
 51
270.0
  0
ARC
  5
6EE
  8
DATA
  6
CONTINUOUS
 62
     7
 10
-47.413193427372789
 20
-148.8463881873711
 30
0.0
 40
0.75
 50
270.0
 51
90.0
  0
LINE
  5
6EF
  8
DATA
  6
CONTINUOUS
 62
     7
 10
-61.613193427372849
 20
-148.0963881873711
 30
0.0
 11
-47.450000000000003
 21
-148.0963881873711
 31
0.0
  0
LINE
  5
6F0
  8
DATA
  6
CONTINUOUS
 62
     7
 10
-47.413193427372789
 20
-149.5963881873711
 30
0.0
 11
-61.61319300351758
 21
-149.5963881873711
 31
0.0
  0
ARC
  5
6F1
  8
DATA
  6
CONTINUOUS
 62
     7
 10
-61.613193427372849
 20
-143.8463881873711
 30
0.0
 40
0.75
 50
90.0
 51
270.0
  0
ARC
  5
6F2
  8
DATA
  6
CONTINUOUS
 62
     7
 10
-47.413193427372789
 20
-143.8463881873711
 30
0.0
 40
0.75
 50
270.0
 51
90.0
  0
LINE
  5
6F3
  8
DATA
  6
CONTINUOUS
 62
     7
 10
-61.613193427372849
 20
-143.0963881873711
 30
0.0
 11
-47.450000000000003
 21
-143.0963881873711
 31
0.0
  0
LINE
  5
6F4
  8
DATA
  6
CONTINUOUS
 62
     7
 10
-47.413193427372789
 20
-144.5963881873711
 30
0.0
 11
-61.61319300351758
 21
-144.5963881873711
 31
0.0
  0
ARC
  5
6F5
  8
DATA
  6
CONTINUOUS
 62
     7
 10
-61.613193427372849
 20
-138.84638818737099
 30
0.0
 40
0.75
 50
90.0
 51
270.0
  0
ARC
  5
6F6
  8
DATA
  6
CONTINUOUS
 62
     7
 10
-47.413193427372789
 20
-138.84638818737099
 30
0.0
 40
0.75
 50
270.0
 51
90.0
  0
LINE
  5
6F7
  8
DATA
  6
CONTINUOUS
 62
     7
 10
-61.613193427372849
 20
-138.0963881873711
 30
0.0
 11
-47.450000000000003
 21
-138.0963881873711
 31
0.0
  0
LINE
  5
6F8
  8
DATA
  6
CONTINUOUS
 62
     7
 10
-47.413193427372789
 20
-139.5963881873711
 30
0.0
 11
-61.61319300351758
 21
-139.5963881873711
 31
0.0
  0
ARC
  5
6F9
  8
DATA
  6
CONTINUOUS
 62
     7
 10
-61.613193427372849
 20
-133.84638818737099
 30
0.0
 40
0.75
 50
90.0
 51
270.0
  0
ARC
  5
6FA
  8
DATA
  6
CONTINUOUS
 62
     7
 10
-47.413193427372789
 20
-133.84638818737099
 30
0.0
 40
0.75
 50
270.0
 51
90.0
  0
LINE
  5
6FB
  8
DATA
  6
CONTINUOUS
 62
     7
 10
-61.613193427372849
 20
-133.0963881873711
 30
0.0
 11
-47.450000000000003
 21
-133.0963881873711
 31
0.0
  0
LINE
  5
6FC
  8
DATA
  6
CONTINUOUS
 62
     7
 10
-47.413193427372789
 20
-134.59638818737099
 30
0.0
 11
-61.61319300351758
 21
-134.59638818737099
 31
0.0
  0
ARC
  5
6FD
  8
DATA
  6
CONTINUOUS
 62
     7
 10
-61.613193427372849
 20
-128.8463881873711
 30
0.0
 40
0.75
 50
90.0
 51
270.0
  0
ARC
  5
6FE
  8
DATA
  6
CONTINUOUS
 62
     7
 10
-47.413193427372789
 20
-128.8463881873711
 30
0.0
 40
0.75
 50
270.0
 51
90.0
  0
LINE
  5
6FF
  8
DATA
  6
CONTINUOUS
 62
     7
 10
-61.613193427372849
 20
-128.0963881873711
 30
0.0
 11
-47.450000000000003
 21
-128.0963881873711
 31
0.0
  0
LINE
  5
700
  8
DATA
  6
CONTINUOUS
 62
     7
 10
-47.413193427372789
 20
-129.59638818737099
 30
0.0
 11
-61.61319300351758
 21
-129.59638818737099
 31
0.0
  0
ARC
  5
701
  8
DATA
  6
CONTINUOUS
 62
     7
 10
-61.613193427372849
 20
-123.8463881873711
 30
0.0
 40
0.75
 50
90.0
 51
270.0
  0
ARC
  5
702
  8
DATA
  6
CONTINUOUS
 62
     7
 10
-47.413193427372789
 20
-123.8463881873711
 30
0.0
 40
0.75
 50
270.0
 51
90.0
  0
LINE
  5
703
  8
DATA
  6
CONTINUOUS
 62
     7
 10
-61.613193427372849
 20
-123.09638818737101
 30
0.0
 11
-47.450000000000003
 21
-123.09638818737101
 31
0.0
  0
LINE
  5
704
  8
DATA
  6
CONTINUOUS
 62
     7
 10
-47.413193427372789
 20
-124.5963881873711
 30
0.0
 11
-61.61319300351758
 21
-124.5963881873711
 31
0.0
  0
ARC
  5
705
  8
DATA
  6
CONTINUOUS
 62
     7
 10
-61.613193427372849
 20
-118.84638818737101
 30
0.0
 40
0.75
 50
90.0
 51
270.0
  0
ARC
  5
706
  8
DATA
  6
CONTINUOUS
 62
     7
 10
-47.413193427372789
 20
-118.84638818737101
 30
0.0
 40
0.75
 50
270.0
 51
90.0
  0
LINE
  5
707
  8
DATA
  6
CONTINUOUS
 62
     7
 10
-61.613193427372849
 20
-118.09638818737101
 30
0.0
 11
-47.450000000000003
 21
-118.09638818737101
 31
0.0
  0
LINE
  5
708
  8
DATA
  6
CONTINUOUS
 62
     7
 10
-47.413193427372789
 20
-119.5963881873711
 30
0.0
 11
-61.61319300351758
 21
-119.5963881873711
 31
0.0
  0
ARC
  5
709
  8
DATA
  6
CONTINUOUS
 62
     7
 10
-61.613193427372849
 20
-113.84638818737101
 30
0.0
 40
0.75
 50
90.0
 51
270.0
  0
ARC
  5
70A
  8
DATA
  6
CONTINUOUS
 62
     7
 10
-47.413193427372789
 20
-113.84638818737101
 30
0.0
 40
0.75
 50
270.0
 51
90.0
  0
LINE
  5
70B
  8
DATA
  6
CONTINUOUS
 62
     7
 10
-61.613193427372849
 20
-113.0963881873711
 30
0.0
 11
-47.450000000000003
 21
-113.0963881873711
 31
0.0
  0
LINE
  5
70C
  8
DATA
  6
CONTINUOUS
 62
     7
 10
-47.413193427372789
 20
-114.5963881873711
 30
0.0
 11
-61.61319300351758
 21
-114.5963881873711
 31
0.0
  0
ARC
  5
70D
  8
DATA
  6
CONTINUOUS
 62
     7
 10
-61.613193427372849
 20
-108.84638818737101
 30
0.0
 40
0.75
 50
90.0
 51
270.0
  0
ARC
  5
70E
  8
DATA
  6
CONTINUOUS
 62
     7
 10
-47.413193427372789
 20
-108.84638818737101
 30
0.0
 40
0.75
 50
270.0
 51
90.0
  0
LINE
  5
70F
  8
DATA
  6
CONTINUOUS
 62
     7
 10
-61.613193427372849
 20
-108.0963881873711
 30
0.0
 11
-47.450000000000003
 21
-108.0963881873711
 31
0.0
  0
LINE
  5
710
  8
DATA
  6
CONTINUOUS
 62
     7
 10
-47.413193427372789
 20
-109.59638818737101
 30
0.0
 11
-61.61319300351758
 21
-109.59638818737101
 31
0.0
  0
ARC
  5
711
  8
DATA
  6
CONTINUOUS
 62
     7
 10
-61.613193427372849
 20
-103.8463881873711
 30
0.0
 40
0.75
 50
90.0
 51
270.0
  0
ARC
  5
712
  8
DATA
  6
CONTINUOUS
 62
     7
 10
-47.413193427372789
 20
-103.8463881873711
 30
0.0
 40
0.75
 50
270.0
 51
90.0
  0
LINE
  5
713
  8
DATA
  6
CONTINUOUS
 62
     7
 10
-61.613193427372849
 20
-103.0963881873711
 30
0.0
 11
-47.450000000000003
 21
-103.0963881873711
 31
0.0
  0
LINE
  5
714
  8
DATA
  6
CONTINUOUS
 62
     7
 10
-47.413193427372789
 20
-104.59638818737101
 30
0.0
 11
-61.61319300351758
 21
-104.59638818737101
 31
0.0
  0
ARC
  5
715
  8
DATA
  6
CONTINUOUS
 62
     7
 10
-86.613193427372835
 20
-158.8463881873711
 30
0.0
 40
0.75
 50
90.0
 51
270.0
  0
ARC
  5
716
  8
DATA
  6
CONTINUOUS
 62
     7
 10
-72.413193427372804
 20
-158.8463881873711
 30
0.0
 40
0.75
 50
270.0
 51
90.0
  0
LINE
  5
717
  8
DATA
  6
CONTINUOUS
 62
     7
 10
-86.613193427372835
 20
-158.0963881873711
 30
0.0
 11
-72.450000000000003
 21
-158.0963881873711
 31
0.0
  0
LINE
  5
718
  8
DATA
  6
CONTINUOUS
 62
     7
 10
-72.413193427372804
 20
-159.5963881873711
 30
0.0
 11
-86.613193003517566
 21
-159.5963881873711
 31
0.0
  0
ARC
  5
719
  8
DATA
  6
CONTINUOUS
 62
     7
 10
-86.613193427372835
 20
-153.8463881873711
 30
0.0
 40
0.75
 50
90.0
 51
270.0
  0
ARC
  5
71A
  8
DATA
  6
CONTINUOUS
 62
     7
 10
-72.413193427372804
 20
-153.8463881873711
 30
0.0
 40
0.75
 50
270.0
 51
90.0
  0
LINE
  5
71B
  8
DATA
  6
CONTINUOUS
 62
     7
 10
-86.613193427372835
 20
-153.0963881873711
 30
0.0
 11
-72.450000000000003
 21
-153.0963881873711
 31
0.0
  0
LINE
  5
71C
  8
DATA
  6
CONTINUOUS
 62
     7
 10
-72.413193427372804
 20
-154.5963881873711
 30
0.0
 11
-86.613193003517566
 21
-154.5963881873711
 31
0.0
  0
ARC
  5
71D
  8
DATA
  6
CONTINUOUS
 62
     7
 10
-86.613193427372835
 20
-148.8463881873711
 30
0.0
 40
0.75
 50
90.0
 51
270.0
  0
ARC
  5
71E
  8
DATA
  6
CONTINUOUS
 62
     7
 10
-72.413193427372804
 20
-148.8463881873711
 30
0.0
 40
0.75
 50
270.0
 51
90.0
  0
LINE
  5
71F
  8
DATA
  6
CONTINUOUS
 62
     7
 10
-86.613193427372835
 20
-148.0963881873711
 30
0.0
 11
-72.450000000000003
 21
-148.0963881873711
 31
0.0
  0
LINE
  5
720
  8
DATA
  6
CONTINUOUS
 62
     7
 10
-72.413193427372804
 20
-149.5963881873711
 30
0.0
 11
-86.613193003517566
 21
-149.5963881873711
 31
0.0
  0
ARC
  5
721
  8
DATA
  6
CONTINUOUS
 62
     7
 10
-86.613193427372835
 20
-143.8463881873711
 30
0.0
 40
0.75
 50
90.0
 51
270.0
  0
ARC
  5
722
  8
DATA
  6
CONTINUOUS
 62
     7
 10
-72.413193427372804
 20
-143.8463881873711
 30
0.0
 40
0.75
 50
270.0
 51
90.0
  0
LINE
  5
723
  8
DATA
  6
CONTINUOUS
 62
     7
 10
-86.613193427372835
 20
-143.0963881873711
 30
0.0
 11
-72.450000000000003
 21
-143.0963881873711
 31
0.0
  0
LINE
  5
724
  8
DATA
  6
CONTINUOUS
 62
     7
 10
-72.413193427372804
 20
-144.5963881873711
 30
0.0
 11
-86.613193003517566
 21
-144.5963881873711
 31
0.0
  0
ARC
  5
725
  8
DATA
  6
CONTINUOUS
 62
     7
 10
-86.613193427372835
 20
-138.84638818737099
 30
0.0
 40
0.75
 50
90.0
 51
270.0
  0
ARC
  5
726
  8
DATA
  6
CONTINUOUS
 62
     7
 10
-72.413193427372804
 20
-138.84638818737099
 30
0.0
 40
0.75
 50
270.0
 51
90.0
  0
LINE
  5
727
  8
DATA
  6
CONTINUOUS
 62
     7
 10
-86.613193427372835
 20
-138.0963881873711
 30
0.0
 11
-72.450000000000003
 21
-138.0963881873711
 31
0.0
  0
LINE
  5
728
  8
DATA
  6
CONTINUOUS
 62
     7
 10
-72.413193427372804
 20
-139.5963881873711
 30
0.0
 11
-86.613193003517566
 21
-139.5963881873711
 31
0.0
  0
ARC
  5
729
  8
DATA
  6
CONTINUOUS
 62
     7
 10
-86.613193427372835
 20
-133.84638818737099
 30
0.0
 40
0.75
 50
90.0
 51
270.0
  0
ARC
  5
72A
  8
DATA
  6
CONTINUOUS
 62
     7
 10
-72.413193427372804
 20
-133.84638818737099
 30
0.0
 40
0.75
 50
270.0
 51
90.0
  0
LINE
  5
72B
  8
DATA
  6
CONTINUOUS
 62
     7
 10
-86.613193427372835
 20
-133.0963881873711
 30
0.0
 11
-72.450000000000003
 21
-133.0963881873711
 31
0.0
  0
LINE
  5
72C
  8
DATA
  6
CONTINUOUS
 62
     7
 10
-72.413193427372804
 20
-134.59638818737099
 30
0.0
 11
-86.613193003517566
 21
-134.59638818737099
 31
0.0
  0
ARC
  5
72D
  8
DATA
  6
CONTINUOUS
 62
     7
 10
-86.613193427372835
 20
-128.8463881873711
 30
0.0
 40
0.75
 50
90.0
 51
270.0
  0
ARC
  5
72E
  8
DATA
  6
CONTINUOUS
 62
     7
 10
-72.413193427372804
 20
-128.8463881873711
 30
0.0
 40
0.75
 50
270.0
 51
90.0
  0
LINE
  5
72F
  8
DATA
  6
CONTINUOUS
 62
     7
 10
-86.613193427372835
 20
-128.0963881873711
 30
0.0
 11
-72.450000000000003
 21
-128.0963881873711
 31
0.0
  0
LINE
  5
730
  8
DATA
  6
CONTINUOUS
 62
     7
 10
-72.413193427372804
 20
-129.59638818737099
 30
0.0
 11
-86.613193003517566
 21
-129.59638818737099
 31
0.0
  0
ARC
  5
731
  8
DATA
  6
CONTINUOUS
 62
     7
 10
-86.613193427372835
 20
-123.8463881873711
 30
0.0
 40
0.75
 50
90.0
 51
270.0
  0
ARC
  5
732
  8
DATA
  6
CONTINUOUS
 62
     7
 10
-72.413193427372804
 20
-123.8463881873711
 30
0.0
 40
0.75
 50
270.0
 51
90.0
  0
LINE
  5
733
  8
DATA
  6
CONTINUOUS
 62
     7
 10
-86.613193427372835
 20
-123.09638818737101
 30
0.0
 11
-72.450000000000003
 21
-123.09638818737101
 31
0.0
  0
LINE
  5
734
  8
DATA
  6
CONTINUOUS
 62
     7
 10
-72.413193427372804
 20
-124.5963881873711
 30
0.0
 11
-86.613193003517566
 21
-124.5963881873711
 31
0.0
  0
ARC
  5
735
  8
DATA
  6
CONTINUOUS
 62
     7
 10
-86.613193427372835
 20
-118.84638818737101
 30
0.0
 40
0.75
 50
90.0
 51
270.0
  0
ARC
  5
736
  8
DATA
  6
CONTINUOUS
 62
     7
 10
-72.413193427372804
 20
-118.84638818737101
 30
0.0
 40
0.75
 50
270.0
 51
90.0
  0
LINE
  5
737
  8
DATA
  6
CONTINUOUS
 62
     7
 10
-86.613193427372835
 20
-118.09638818737101
 30
0.0
 11
-72.450000000000003
 21
-118.09638818737101
 31
0.0
  0
LINE
  5
738
  8
DATA
  6
CONTINUOUS
 62
     7
 10
-72.413193427372804
 20
-119.5963881873711
 30
0.0
 11
-86.613193003517566
 21
-119.5963881873711
 31
0.0
  0
ARC
  5
739
  8
DATA
  6
CONTINUOUS
 62
     7
 10
-86.613193427372835
 20
-113.84638818737101
 30
0.0
 40
0.75
 50
90.0
 51
270.0
  0
ARC
  5
73A
  8
DATA
  6
CONTINUOUS
 62
     7
 10
-72.413193427372804
 20
-113.84638818737101
 30
0.0
 40
0.75
 50
270.0
 51
90.0
  0
LINE
  5
73B
  8
DATA
  6
CONTINUOUS
 62
     7
 10
-86.613193427372835
 20
-113.0963881873711
 30
0.0
 11
-72.450000000000003
 21
-113.0963881873711
 31
0.0
  0
LINE
  5
73C
  8
DATA
  6
CONTINUOUS
 62
     7
 10
-72.413193427372804
 20
-114.5963881873711
 30
0.0
 11
-86.613193003517566
 21
-114.5963881873711
 31
0.0
  0
ARC
  5
73D
  8
DATA
  6
CONTINUOUS
 62
     7
 10
-86.613193427372835
 20
-108.84638818737101
 30
0.0
 40
0.75
 50
90.0
 51
270.0
  0
ARC
  5
73E
  8
DATA
  6
CONTINUOUS
 62
     7
 10
-72.413193427372804
 20
-108.84638818737101
 30
0.0
 40
0.75
 50
270.0
 51
90.0
  0
LINE
  5
73F
  8
DATA
  6
CONTINUOUS
 62
     7
 10
-86.613193427372835
 20
-108.0963881873711
 30
0.0
 11
-72.450000000000003
 21
-108.0963881873711
 31
0.0
  0
LINE
  5
740
  8
DATA
  6
CONTINUOUS
 62
     7
 10
-72.413193427372804
 20
-109.59638818737101
 30
0.0
 11
-86.613193003517566
 21
-109.59638818737101
 31
0.0
  0
ARC
  5
741
  8
DATA
  6
CONTINUOUS
 62
     7
 10
-86.613193427372835
 20
-103.8463881873711
 30
0.0
 40
0.75
 50
90.0
 51
270.0
  0
ARC
  5
742
  8
DATA
  6
CONTINUOUS
 62
     7
 10
-72.413193427372804
 20
-103.8463881873711
 30
0.0
 40
0.75
 50
270.0
 51
90.0
  0
LINE
  5
743
  8
DATA
  6
CONTINUOUS
 62
     7
 10
-86.613193427372835
 20
-103.0963881873711
 30
0.0
 11
-72.450000000000003
 21
-103.0963881873711
 31
0.0
  0
LINE
  5
744
  8
DATA
  6
CONTINUOUS
 62
     7
 10
-72.413193427372804
 20
-104.59638818737101
 30
0.0
 11
-86.613193003517566
 21
-104.59638818737101
 31
0.0
  0
ARC
  5
745
  8
DATA
  6
CONTINUOUS
 62
     7
 10
-111.61319342737281
 20
-158.8463881873711
 30
0.0
 40
0.75
 50
90.0
 51
270.0
  0
ARC
  5
746
  8
DATA
  6
CONTINUOUS
 62
     7
 10
-97.413193427372804
 20
-158.8463881873711
 30
0.0
 40
0.75
 50
270.0
 51
90.0
  0
LINE
  5
747
  8
DATA
  6
CONTINUOUS
 62
     7
 10
-111.61319342737281
 20
-158.0963881873711
 30
0.0
 11
-97.450000000000003
 21
-158.0963881873711
 31
0.0
  0
LINE
  5
748
  8
DATA
  6
CONTINUOUS
 62
     7
 10
-97.413193427372804
 20
-159.5963881873711
 30
0.0
 11
-111.61319300351749
 21
-159.5963881873711
 31
0.0
  0
ARC
  5
749
  8
DATA
  6
CONTINUOUS
 62
     7
 10
-111.61319342737281
 20
-153.8463881873711
 30
0.0
 40
0.75
 50
90.0
 51
270.0
  0
ARC
  5
74A
  8
DATA
  6
CONTINUOUS
 62
     7
 10
-97.413193427372804
 20
-153.8463881873711
 30
0.0
 40
0.75
 50
270.0
 51
90.0
  0
LINE
  5
74B
  8
DATA
  6
CONTINUOUS
 62
     7
 10
-111.61319342737281
 20
-153.0963881873711
 30
0.0
 11
-97.450000000000003
 21
-153.0963881873711
 31
0.0
  0
LINE
  5
74C
  8
DATA
  6
CONTINUOUS
 62
     7
 10
-97.413193427372804
 20
-154.5963881873711
 30
0.0
 11
-111.61319300351749
 21
-154.5963881873711
 31
0.0
  0
ARC
  5
74D
  8
DATA
  6
CONTINUOUS
 62
     7
 10
-111.61319342737281
 20
-148.8463881873711
 30
0.0
 40
0.75
 50
90.0
 51
270.0
  0
ARC
  5
74E
  8
DATA
  6
CONTINUOUS
 62
     7
 10
-97.413193427372804
 20
-148.8463881873711
 30
0.0
 40
0.75
 50
270.0
 51
90.0
  0
LINE
  5
74F
  8
DATA
  6
CONTINUOUS
 62
     7
 10
-111.61319342737281
 20
-148.0963881873711
 30
0.0
 11
-97.450000000000003
 21
-148.0963881873711
 31
0.0
  0
LINE
  5
750
  8
DATA
  6
CONTINUOUS
 62
     7
 10
-97.413193427372804
 20
-149.5963881873711
 30
0.0
 11
-111.61319300351749
 21
-149.5963881873711
 31
0.0
  0
ARC
  5
751
  8
DATA
  6
CONTINUOUS
 62
     7
 10
-111.61319342737281
 20
-143.8463881873711
 30
0.0
 40
0.75
 50
90.0
 51
270.0
  0
ARC
  5
752
  8
DATA
  6
CONTINUOUS
 62
     7
 10
-97.413193427372804
 20
-143.8463881873711
 30
0.0
 40
0.75
 50
270.0
 51
90.0
  0
LINE
  5
753
  8
DATA
  6
CONTINUOUS
 62
     7
 10
-111.61319342737281
 20
-143.0963881873711
 30
0.0
 11
-97.450000000000003
 21
-143.0963881873711
 31
0.0
  0
LINE
  5
754
  8
DATA
  6
CONTINUOUS
 62
     7
 10
-97.413193427372804
 20
-144.5963881873711
 30
0.0
 11
-111.61319300351749
 21
-144.5963881873711
 31
0.0
  0
ARC
  5
755
  8
DATA
  6
CONTINUOUS
 62
     7
 10
-111.61319342737281
 20
-138.84638818737099
 30
0.0
 40
0.75
 50
90.0
 51
270.0
  0
ARC
  5
756
  8
DATA
  6
CONTINUOUS
 62
     7
 10
-97.413193427372804
 20
-138.84638818737099
 30
0.0
 40
0.75
 50
270.0
 51
90.0
  0
LINE
  5
757
  8
DATA
  6
CONTINUOUS
 62
     7
 10
-111.61319342737281
 20
-138.0963881873711
 30
0.0
 11
-97.450000000000003
 21
-138.0963881873711
 31
0.0
  0
LINE
  5
758
  8
DATA
  6
CONTINUOUS
 62
     7
 10
-97.413193427372804
 20
-139.5963881873711
 30
0.0
 11
-111.61319300351749
 21
-139.5963881873711
 31
0.0
  0
ARC
  5
759
  8
DATA
  6
CONTINUOUS
 62
     7
 10
-111.61319342737281
 20
-133.84638818737099
 30
0.0
 40
0.75
 50
90.0
 51
270.0
  0
ARC
  5
75A
  8
DATA
  6
CONTINUOUS
 62
     7
 10
-97.413193427372804
 20
-133.84638818737099
 30
0.0
 40
0.75
 50
270.0
 51
90.0
  0
LINE
  5
75B
  8
DATA
  6
CONTINUOUS
 62
     7
 10
-111.61319342737281
 20
-133.0963881873711
 30
0.0
 11
-97.450000000000003
 21
-133.0963881873711
 31
0.0
  0
LINE
  5
75C
  8
DATA
  6
CONTINUOUS
 62
     7
 10
-97.413193427372804
 20
-134.59638818737099
 30
0.0
 11
-111.61319300351749
 21
-134.59638818737099
 31
0.0
  0
ARC
  5
75D
  8
DATA
  6
CONTINUOUS
 62
     7
 10
-111.61319342737281
 20
-128.8463881873711
 30
0.0
 40
0.75
 50
90.0
 51
270.0
  0
ARC
  5
75E
  8
DATA
  6
CONTINUOUS
 62
     7
 10
-97.413193427372804
 20
-128.8463881873711
 30
0.0
 40
0.75
 50
270.0
 51
90.0
  0
LINE
  5
75F
  8
DATA
  6
CONTINUOUS
 62
     7
 10
-111.61319342737281
 20
-128.0963881873711
 30
0.0
 11
-97.450000000000003
 21
-128.0963881873711
 31
0.0
  0
LINE
  5
760
  8
DATA
  6
CONTINUOUS
 62
     7
 10
-97.413193427372804
 20
-129.59638818737099
 30
0.0
 11
-111.61319300351749
 21
-129.59638818737099
 31
0.0
  0
ARC
  5
761
  8
DATA
  6
CONTINUOUS
 62
     7
 10
-111.61319342737281
 20
-123.8463881873711
 30
0.0
 40
0.75
 50
90.0
 51
270.0
  0
ARC
  5
762
  8
DATA
  6
CONTINUOUS
 62
     7
 10
-97.413193427372804
 20
-123.8463881873711
 30
0.0
 40
0.75
 50
270.0
 51
90.0
  0
LINE
  5
763
  8
DATA
  6
CONTINUOUS
 62
     7
 10
-111.61319342737281
 20
-123.09638818737101
 30
0.0
 11
-97.450000000000003
 21
-123.09638818737101
 31
0.0
  0
LINE
  5
764
  8
DATA
  6
CONTINUOUS
 62
     7
 10
-97.413193427372804
 20
-124.5963881873711
 30
0.0
 11
-111.61319300351749
 21
-124.5963881873711
 31
0.0
  0
ARC
  5
765
  8
DATA
  6
CONTINUOUS
 62
     7
 10
-111.61319342737281
 20
-118.84638818737101
 30
0.0
 40
0.75
 50
90.0
 51
270.0
  0
ARC
  5
766
  8
DATA
  6
CONTINUOUS
 62
     7
 10
-97.413193427372804
 20
-118.84638818737101
 30
0.0
 40
0.75
 50
270.0
 51
90.0
  0
LINE
  5
767
  8
DATA
  6
CONTINUOUS
 62
     7
 10
-111.61319342737281
 20
-118.09638818737101
 30
0.0
 11
-97.450000000000003
 21
-118.09638818737101
 31
0.0
  0
LINE
  5
768
  8
DATA
  6
CONTINUOUS
 62
     7
 10
-97.413193427372804
 20
-119.5963881873711
 30
0.0
 11
-111.61319300351749
 21
-119.5963881873711
 31
0.0
  0
ARC
  5
769
  8
DATA
  6
CONTINUOUS
 62
     7
 10
-111.61319342737281
 20
-113.84638818737101
 30
0.0
 40
0.75
 50
90.0
 51
270.0
  0
ARC
  5
76A
  8
DATA
  6
CONTINUOUS
 62
     7
 10
-97.413193427372804
 20
-113.84638818737101
 30
0.0
 40
0.75
 50
270.0
 51
90.0
  0
LINE
  5
76B
  8
DATA
  6
CONTINUOUS
 62
     7
 10
-111.61319342737281
 20
-113.0963881873711
 30
0.0
 11
-97.450000000000003
 21
-113.0963881873711
 31
0.0
  0
LINE
  5
76C
  8
DATA
  6
CONTINUOUS
 62
     7
 10
-97.413193427372804
 20
-114.5963881873711
 30
0.0
 11
-111.61319300351749
 21
-114.5963881873711
 31
0.0
  0
ARC
  5
76D
  8
DATA
  6
CONTINUOUS
 62
     7
 10
-111.61319342737281
 20
-108.84638818737101
 30
0.0
 40
0.75
 50
90.0
 51
270.0
  0
ARC
  5
76E
  8
DATA
  6
CONTINUOUS
 62
     7
 10
-97.413193427372804
 20
-108.84638818737101
 30
0.0
 40
0.75
 50
270.0
 51
90.0
  0
LINE
  5
76F
  8
DATA
  6
CONTINUOUS
 62
     7
 10
-111.61319342737281
 20
-108.0963881873711
 30
0.0
 11
-97.450000000000003
 21
-108.0963881873711
 31
0.0
  0
LINE
  5
770
  8
DATA
  6
CONTINUOUS
 62
     7
 10
-97.413193427372804
 20
-109.59638818737101
 30
0.0
 11
-111.61319300351749
 21
-109.59638818737101
 31
0.0
  0
ARC
  5
771
  8
DATA
  6
CONTINUOUS
 62
     7
 10
-111.61319342737281
 20
-103.8463881873711
 30
0.0
 40
0.75
 50
90.0
 51
270.0
  0
ARC
  5
772
  8
DATA
  6
CONTINUOUS
 62
     7
 10
-97.413193427372804
 20
-103.8463881873711
 30
0.0
 40
0.75
 50
270.0
 51
90.0
  0
LINE
  5
773
  8
DATA
  6
CONTINUOUS
 62
     7
 10
-111.61319342737281
 20
-103.0963881873711
 30
0.0
 11
-97.450000000000003
 21
-103.0963881873711
 31
0.0
  0
LINE
  5
774
  8
DATA
  6
CONTINUOUS
 62
     7
 10
-97.413193427372804
 20
-104.59638818737101
 30
0.0
 11
-111.61319300351749
 21
-104.59638818737101
 31
0.0
  0
ARC
  5
775
  8
DATA
  6
CONTINUOUS
 62
     7
 10
-136.61319342737281
 20
-158.8463881873711
 30
0.0
 40
0.75
 50
90.0
 51
270.0
  0
ARC
  5
776
  8
DATA
  6
CONTINUOUS
 62
     7
 10
-122.4131934273728
 20
-158.8463881873711
 30
0.0
 40
0.75
 50
270.0
 51
90.0
  0
LINE
  5
777
  8
DATA
  6
CONTINUOUS
 62
     7
 10
-136.61319342737281
 20
-158.0963881873711
 30
0.0
 11
-122.45
 21
-158.0963881873711
 31
0.0
  0
LINE
  5
778
  8
DATA
  6
CONTINUOUS
 62
     7
 10
-122.4131934273728
 20
-159.5963881873711
 30
0.0
 11
-136.61319300351749
 21
-159.5963881873711
 31
0.0
  0
ARC
  5
779
  8
DATA
  6
CONTINUOUS
 62
     7
 10
-136.61319342737281
 20
-153.8463881873711
 30
0.0
 40
0.75
 50
90.0
 51
270.0
  0
ARC
  5
77A
  8
DATA
  6
CONTINUOUS
 62
     7
 10
-122.4131934273728
 20
-153.8463881873711
 30
0.0
 40
0.75
 50
270.0
 51
90.0
  0
LINE
  5
77B
  8
DATA
  6
CONTINUOUS
 62
     7
 10
-136.61319342737281
 20
-153.0963881873711
 30
0.0
 11
-122.45
 21
-153.0963881873711
 31
0.0
  0
LINE
  5
77C
  8
DATA
  6
CONTINUOUS
 62
     7
 10
-122.4131934273728
 20
-154.5963881873711
 30
0.0
 11
-136.61319300351749
 21
-154.5963881873711
 31
0.0
  0
ARC
  5
77D
  8
DATA
  6
CONTINUOUS
 62
     7
 10
-136.61319342737281
 20
-148.8463881873711
 30
0.0
 40
0.75
 50
90.0
 51
270.0
  0
ARC
  5
77E
  8
DATA
  6
CONTINUOUS
 62
     7
 10
-122.4131934273728
 20
-148.8463881873711
 30
0.0
 40
0.75
 50
270.0
 51
90.0
  0
LINE
  5
77F
  8
DATA
  6
CONTINUOUS
 62
     7
 10
-136.61319342737281
 20
-148.0963881873711
 30
0.0
 11
-122.45
 21
-148.0963881873711
 31
0.0
  0
LINE
  5
780
  8
DATA
  6
CONTINUOUS
 62
     7
 10
-122.4131934273728
 20
-149.5963881873711
 30
0.0
 11
-136.61319300351749
 21
-149.5963881873711
 31
0.0
  0
ARC
  5
781
  8
DATA
  6
CONTINUOUS
 62
     7
 10
-136.61319342737281
 20
-143.8463881873711
 30
0.0
 40
0.75
 50
90.0
 51
270.0
  0
ARC
  5
782
  8
DATA
  6
CONTINUOUS
 62
     7
 10
-122.4131934273728
 20
-143.8463881873711
 30
0.0
 40
0.75
 50
270.0
 51
90.0
  0
LINE
  5
783
  8
DATA
  6
CONTINUOUS
 62
     7
 10
-136.61319342737281
 20
-143.0963881873711
 30
0.0
 11
-122.45
 21
-143.0963881873711
 31
0.0
  0
LINE
  5
784
  8
DATA
  6
CONTINUOUS
 62
     7
 10
-122.4131934273728
 20
-144.5963881873711
 30
0.0
 11
-136.61319300351749
 21
-144.5963881873711
 31
0.0
  0
ARC
  5
785
  8
DATA
  6
CONTINUOUS
 62
     7
 10
-136.61319342737281
 20
-138.84638818737099
 30
0.0
 40
0.75
 50
90.0
 51
270.0
  0
ARC
  5
786
  8
DATA
  6
CONTINUOUS
 62
     7
 10
-122.4131934273728
 20
-138.84638818737099
 30
0.0
 40
0.75
 50
270.0
 51
90.0
  0
LINE
  5
787
  8
DATA
  6
CONTINUOUS
 62
     7
 10
-136.61319342737281
 20
-138.0963881873711
 30
0.0
 11
-122.45
 21
-138.0963881873711
 31
0.0
  0
LINE
  5
788
  8
DATA
  6
CONTINUOUS
 62
     7
 10
-122.4131934273728
 20
-139.5963881873711
 30
0.0
 11
-136.61319300351749
 21
-139.5963881873711
 31
0.0
  0
ARC
  5
789
  8
DATA
  6
CONTINUOUS
 62
     7
 10
-136.61319342737281
 20
-133.84638818737099
 30
0.0
 40
0.75
 50
90.0
 51
270.0
  0
ARC
  5
78A
  8
DATA
  6
CONTINUOUS
 62
     7
 10
-122.4131934273728
 20
-133.84638818737099
 30
0.0
 40
0.75
 50
270.0
 51
90.0
  0
LINE
  5
78B
  8
DATA
  6
CONTINUOUS
 62
     7
 10
-136.61319342737281
 20
-133.0963881873711
 30
0.0
 11
-122.45
 21
-133.0963881873711
 31
0.0
  0
LINE
  5
78C
  8
DATA
  6
CONTINUOUS
 62
     7
 10
-122.4131934273728
 20
-134.59638818737099
 30
0.0
 11
-136.61319300351749
 21
-134.59638818737099
 31
0.0
  0
ARC
  5
78D
  8
DATA
  6
CONTINUOUS
 62
     7
 10
-136.61319342737281
 20
-128.8463881873711
 30
0.0
 40
0.75
 50
90.0
 51
270.0
  0
ARC
  5
78E
  8
DATA
  6
CONTINUOUS
 62
     7
 10
-122.4131934273728
 20
-128.8463881873711
 30
0.0
 40
0.75
 50
270.0
 51
90.0
  0
LINE
  5
78F
  8
DATA
  6
CONTINUOUS
 62
     7
 10
-136.61319342737281
 20
-128.0963881873711
 30
0.0
 11
-122.45
 21
-128.0963881873711
 31
0.0
  0
LINE
  5
790
  8
DATA
  6
CONTINUOUS
 62
     7
 10
-122.4131934273728
 20
-129.59638818737099
 30
0.0
 11
-136.61319300351749
 21
-129.59638818737099
 31
0.0
  0
ARC
  5
791
  8
DATA
  6
CONTINUOUS
 62
     7
 10
-136.61319342737281
 20
-123.8463881873711
 30
0.0
 40
0.75
 50
90.0
 51
270.0
  0
ARC
  5
792
  8
DATA
  6
CONTINUOUS
 62
     7
 10
-122.4131934273728
 20
-123.8463881873711
 30
0.0
 40
0.75
 50
270.0
 51
90.0
  0
LINE
  5
793
  8
DATA
  6
CONTINUOUS
 62
     7
 10
-136.61319342737281
 20
-123.09638818737101
 30
0.0
 11
-122.45
 21
-123.09638818737101
 31
0.0
  0
LINE
  5
794
  8
DATA
  6
CONTINUOUS
 62
     7
 10
-122.4131934273728
 20
-124.5963881873711
 30
0.0
 11
-136.61319300351749
 21
-124.5963881873711
 31
0.0
  0
ARC
  5
795
  8
DATA
  6
CONTINUOUS
 62
     7
 10
-136.61319342737281
 20
-118.84638818737101
 30
0.0
 40
0.75
 50
90.0
 51
270.0
  0
ARC
  5
796
  8
DATA
  6
CONTINUOUS
 62
     7
 10
-122.4131934273728
 20
-118.84638818737101
 30
0.0
 40
0.75
 50
270.0
 51
90.0
  0
LINE
  5
797
  8
DATA
  6
CONTINUOUS
 62
     7
 10
-136.61319342737281
 20
-118.09638818737101
 30
0.0
 11
-122.45
 21
-118.09638818737101
 31
0.0
  0
LINE
  5
798
  8
DATA
  6
CONTINUOUS
 62
     7
 10
-122.4131934273728
 20
-119.5963881873711
 30
0.0
 11
-136.61319300351749
 21
-119.5963881873711
 31
0.0
  0
ARC
  5
799
  8
DATA
  6
CONTINUOUS
 62
     7
 10
-136.61319342737281
 20
-113.84638818737101
 30
0.0
 40
0.75
 50
90.0
 51
270.0
  0
ARC
  5
79A
  8
DATA
  6
CONTINUOUS
 62
     7
 10
-122.4131934273728
 20
-113.84638818737101
 30
0.0
 40
0.75
 50
270.0
 51
90.0
  0
LINE
  5
79B
  8
DATA
  6
CONTINUOUS
 62
     7
 10
-136.61319342737281
 20
-113.0963881873711
 30
0.0
 11
-122.45
 21
-113.0963881873711
 31
0.0
  0
LINE
  5
79C
  8
DATA
  6
CONTINUOUS
 62
     7
 10
-122.4131934273728
 20
-114.5963881873711
 30
0.0
 11
-136.61319300351749
 21
-114.5963881873711
 31
0.0
  0
ARC
  5
79D
  8
DATA
  6
CONTINUOUS
 62
     7
 10
-136.61319342737281
 20
-108.84638818737101
 30
0.0
 40
0.75
 50
90.0
 51
270.0
  0
ARC
  5
79E
  8
DATA
  6
CONTINUOUS
 62
     7
 10
-122.4131934273728
 20
-108.84638818737101
 30
0.0
 40
0.75
 50
270.0
 51
90.0
  0
LINE
  5
79F
  8
DATA
  6
CONTINUOUS
 62
     7
 10
-136.61319342737281
 20
-108.0963881873711
 30
0.0
 11
-122.45
 21
-108.0963881873711
 31
0.0
  0
LINE
  5
7A0
  8
DATA
  6
CONTINUOUS
 62
     7
 10
-122.4131934273728
 20
-109.59638818737101
 30
0.0
 11
-136.61319300351749
 21
-109.59638818737101
 31
0.0
  0
ARC
  5
7A1
  8
DATA
  6
CONTINUOUS
 62
     7
 10
-136.61319342737281
 20
-103.8463881873711
 30
0.0
 40
0.75
 50
90.0
 51
270.0
  0
ARC
  5
7A2
  8
DATA
  6
CONTINUOUS
 62
     7
 10
-122.4131934273728
 20
-103.8463881873711
 30
0.0
 40
0.75
 50
270.0
 51
90.0
  0
LINE
  5
7A3
  8
DATA
  6
CONTINUOUS
 62
     7
 10
-136.61319342737281
 20
-103.0963881873711
 30
0.0
 11
-122.45
 21
-103.0963881873711
 31
0.0
  0
LINE
  5
7A4
  8
DATA
  6
CONTINUOUS
 62
     7
 10
-122.4131934273728
 20
-104.59638818737101
 30
0.0
 11
-136.61319300351749
 21
-104.59638818737101
 31
0.0
  0
ARC
  5
7A5
  8
DATA
  6
CONTINUOUS
 62
     7
 10
-161.61319342737281
 20
-158.8463881873711
 30
0.0
 40
0.75
 50
90.0
 51
270.0
  0
ARC
  5
7A6
  8
DATA
  6
CONTINUOUS
 62
     7
 10
-147.41319342737279
 20
-158.8463881873711
 30
0.0
 40
0.75
 50
270.0
 51
90.0
  0
LINE
  5
7A7
  8
DATA
  6
CONTINUOUS
 62
     7
 10
-161.61319342737281
 20
-158.0963881873711
 30
0.0
 11
-147.44999999999999
 21
-158.0963881873711
 31
0.0
  0
LINE
  5
7A8
  8
DATA
  6
CONTINUOUS
 62
     7
 10
-147.41319342737279
 20
-159.5963881873711
 30
0.0
 11
-161.61319300351761
 21
-159.5963881873711
 31
0.0
  0
ARC
  5
7A9
  8
DATA
  6
CONTINUOUS
 62
     7
 10
-161.61319342737281
 20
-153.8463881873711
 30
0.0
 40
0.75
 50
90.0
 51
270.0
  0
ARC
  5
7AA
  8
DATA
  6
CONTINUOUS
 62
     7
 10
-147.41319342737279
 20
-153.8463881873711
 30
0.0
 40
0.75
 50
270.0
 51
90.0
  0
LINE
  5
7AB
  8
DATA
  6
CONTINUOUS
 62
     7
 10
-161.61319342737281
 20
-153.0963881873711
 30
0.0
 11
-147.44999999999999
 21
-153.0963881873711
 31
0.0
  0
LINE
  5
7AC
  8
DATA
  6
CONTINUOUS
 62
     7
 10
-147.41319342737279
 20
-154.5963881873711
 30
0.0
 11
-161.61319300351761
 21
-154.5963881873711
 31
0.0
  0
ARC
  5
7AD
  8
DATA
  6
CONTINUOUS
 62
     7
 10
-161.61319342737281
 20
-148.8463881873711
 30
0.0
 40
0.75
 50
90.0
 51
270.0
  0
ARC
  5
7AE
  8
DATA
  6
CONTINUOUS
 62
     7
 10
-147.41319342737279
 20
-148.8463881873711
 30
0.0
 40
0.75
 50
270.0
 51
90.0
  0
LINE
  5
7AF
  8
DATA
  6
CONTINUOUS
 62
     7
 10
-161.61319342737281
 20
-148.0963881873711
 30
0.0
 11
-147.44999999999999
 21
-148.0963881873711
 31
0.0
  0
LINE
  5
7B0
  8
DATA
  6
CONTINUOUS
 62
     7
 10
-147.41319342737279
 20
-149.5963881873711
 30
0.0
 11
-161.61319300351761
 21
-149.5963881873711
 31
0.0
  0
ARC
  5
7B1
  8
DATA
  6
CONTINUOUS
 62
     7
 10
-161.61319342737281
 20
-143.8463881873711
 30
0.0
 40
0.75
 50
90.0
 51
270.0
  0
ARC
  5
7B2
  8
DATA
  6
CONTINUOUS
 62
     7
 10
-147.41319342737279
 20
-143.8463881873711
 30
0.0
 40
0.75
 50
270.0
 51
90.0
  0
LINE
  5
7B3
  8
DATA
  6
CONTINUOUS
 62
     7
 10
-161.61319342737281
 20
-143.0963881873711
 30
0.0
 11
-147.44999999999999
 21
-143.0963881873711
 31
0.0
  0
LINE
  5
7B4
  8
DATA
  6
CONTINUOUS
 62
     7
 10
-147.41319342737279
 20
-144.5963881873711
 30
0.0
 11
-161.61319300351761
 21
-144.5963881873711
 31
0.0
  0
ARC
  5
7B5
  8
DATA
  6
CONTINUOUS
 62
     7
 10
-161.61319342737281
 20
-138.84638818737099
 30
0.0
 40
0.75
 50
90.0
 51
270.0
  0
ARC
  5
7B6
  8
DATA
  6
CONTINUOUS
 62
     7
 10
-147.41319342737279
 20
-138.84638818737099
 30
0.0
 40
0.75
 50
270.0
 51
90.0
  0
LINE
  5
7B7
  8
DATA
  6
CONTINUOUS
 62
     7
 10
-161.61319342737281
 20
-138.0963881873711
 30
0.0
 11
-147.44999999999999
 21
-138.0963881873711
 31
0.0
  0
LINE
  5
7B8
  8
DATA
  6
CONTINUOUS
 62
     7
 10
-147.41319342737279
 20
-139.5963881873711
 30
0.0
 11
-161.61319300351761
 21
-139.5963881873711
 31
0.0
  0
ARC
  5
7B9
  8
DATA
  6
CONTINUOUS
 62
     7
 10
-161.61319342737281
 20
-133.84638818737099
 30
0.0
 40
0.75
 50
90.0
 51
270.0
  0
ARC
  5
7BA
  8
DATA
  6
CONTINUOUS
 62
     7
 10
-147.41319342737279
 20
-133.84638818737099
 30
0.0
 40
0.75
 50
270.0
 51
90.0
  0
LINE
  5
7BB
  8
DATA
  6
CONTINUOUS
 62
     7
 10
-161.61319342737281
 20
-133.0963881873711
 30
0.0
 11
-147.44999999999999
 21
-133.0963881873711
 31
0.0
  0
LINE
  5
7BC
  8
DATA
  6
CONTINUOUS
 62
     7
 10
-147.41319342737279
 20
-134.59638818737099
 30
0.0
 11
-161.61319300351761
 21
-134.59638818737099
 31
0.0
  0
ARC
  5
7BD
  8
DATA
  6
CONTINUOUS
 62
     7
 10
-161.61319342737281
 20
-128.8463881873711
 30
0.0
 40
0.75
 50
90.0
 51
270.0
  0
ARC
  5
7BE
  8
DATA
  6
CONTINUOUS
 62
     7
 10
-147.41319342737279
 20
-128.8463881873711
 30
0.0
 40
0.75
 50
270.0
 51
90.0
  0
LINE
  5
7BF
  8
DATA
  6
CONTINUOUS
 62
     7
 10
-161.61319342737281
 20
-128.0963881873711
 30
0.0
 11
-147.44999999999999
 21
-128.0963881873711
 31
0.0
  0
LINE
  5
7C0
  8
DATA
  6
CONTINUOUS
 62
     7
 10
-147.41319342737279
 20
-129.59638818737099
 30
0.0
 11
-161.61319300351761
 21
-129.59638818737099
 31
0.0
  0
ARC
  5
7C1
  8
DATA
  6
CONTINUOUS
 62
     7
 10
-161.61319342737281
 20
-123.8463881873711
 30
0.0
 40
0.75
 50
90.0
 51
270.0
  0
ARC
  5
7C2
  8
DATA
  6
CONTINUOUS
 62
     7
 10
-147.41319342737279
 20
-123.8463881873711
 30
0.0
 40
0.75
 50
270.0
 51
90.0
  0
LINE
  5
7C3
  8
DATA
  6
CONTINUOUS
 62
     7
 10
-161.61319342737281
 20
-123.09638818737101
 30
0.0
 11
-147.44999999999999
 21
-123.09638818737101
 31
0.0
  0
LINE
  5
7C4
  8
DATA
  6
CONTINUOUS
 62
     7
 10
-147.41319342737279
 20
-124.5963881873711
 30
0.0
 11
-161.61319300351761
 21
-124.5963881873711
 31
0.0
  0
ARC
  5
7C5
  8
DATA
  6
CONTINUOUS
 62
     7
 10
-161.61319342737281
 20
-118.84638818737101
 30
0.0
 40
0.75
 50
90.0
 51
270.0
  0
ARC
  5
7C6
  8
DATA
  6
CONTINUOUS
 62
     7
 10
-147.41319342737279
 20
-118.84638818737101
 30
0.0
 40
0.75
 50
270.0
 51
90.0
  0
LINE
  5
7C7
  8
DATA
  6
CONTINUOUS
 62
     7
 10
-161.61319342737281
 20
-118.09638818737101
 30
0.0
 11
-147.44999999999999
 21
-118.09638818737101
 31
0.0
  0
LINE
  5
7C8
  8
DATA
  6
CONTINUOUS
 62
     7
 10
-147.41319342737279
 20
-119.5963881873711
 30
0.0
 11
-161.61319300351761
 21
-119.5963881873711
 31
0.0
  0
ARC
  5
7C9
  8
DATA
  6
CONTINUOUS
 62
     7
 10
-161.61319342737281
 20
-113.84638818737101
 30
0.0
 40
0.75
 50
90.0
 51
270.0
  0
ARC
  5
7CA
  8
DATA
  6
CONTINUOUS
 62
     7
 10
-147.41319342737279
 20
-113.84638818737101
 30
0.0
 40
0.75
 50
270.0
 51
90.0
  0
LINE
  5
7CB
  8
DATA
  6
CONTINUOUS
 62
     7
 10
-161.61319342737281
 20
-113.0963881873711
 30
0.0
 11
-147.44999999999999
 21
-113.0963881873711
 31
0.0
  0
LINE
  5
7CC
  8
DATA
  6
CONTINUOUS
 62
     7
 10
-147.41319342737279
 20
-114.5963881873711
 30
0.0
 11
-161.61319300351761
 21
-114.5963881873711
 31
0.0
  0
ARC
  5
7CD
  8
DATA
  6
CONTINUOUS
 62
     7
 10
-161.61319342737281
 20
-108.84638818737101
 30
0.0
 40
0.75
 50
90.0
 51
270.0
  0
ARC
  5
7CE
  8
DATA
  6
CONTINUOUS
 62
     7
 10
-147.41319342737279
 20
-108.84638818737101
 30
0.0
 40
0.75
 50
270.0
 51
90.0
  0
LINE
  5
7CF
  8
DATA
  6
CONTINUOUS
 62
     7
 10
-161.61319342737281
 20
-108.0963881873711
 30
0.0
 11
-147.44999999999999
 21
-108.0963881873711
 31
0.0
  0
LINE
  5
7D0
  8
DATA
  6
CONTINUOUS
 62
     7
 10
-147.41319342737279
 20
-109.59638818737101
 30
0.0
 11
-161.61319300351761
 21
-109.59638818737101
 31
0.0
  0
ARC
  5
7D1
  8
DATA
  6
CONTINUOUS
 62
     7
 10
-161.61319342737281
 20
-103.8463881873711
 30
0.0
 40
0.75
 50
90.0
 51
270.0
  0
ARC
  5
7D2
  8
DATA
  6
CONTINUOUS
 62
     7
 10
-147.41319342737279
 20
-103.8463881873711
 30
0.0
 40
0.75
 50
270.0
 51
90.0
  0
LINE
  5
7D3
  8
DATA
  6
CONTINUOUS
 62
     7
 10
-161.61319342737281
 20
-103.0963881873711
 30
0.0
 11
-147.44999999999999
 21
-103.0963881873711
 31
0.0
  0
LINE
  5
7D4
  8
DATA
  6
CONTINUOUS
 62
     7
 10
-147.41319342737279
 20
-104.59638818737101
 30
0.0
 11
-161.61319300351761
 21
-104.59638818737101
 31
0.0
  0
ARC
  5
7D5
  8
DATA
  6
CONTINUOUS
 62
     7
 10
318.98008164009468
 20
-410.61300816400939
 30
0.0
 40
0.75
 50
0.0
 51
180.0
  0
ARC
  5
7D6
  8
DATA
  6
CONTINUOUS
 62
     7
 10
318.98008164009468
 20
-424.81300816400949
 30
0.0
 40
0.75
 50
180.0
 51
0.0
  0
LINE
  5
7D7
  8
DATA
  6
CONTINUOUS
 62
     7
 10
319.73008164009468
 20
-410.61300816400939
 30
0.0
 11
319.73008164009468
 21
-424.77620159138218
 31
0.0
  0
LINE
  5
7D8
  8
DATA
  6
CONTINUOUS
 62
     7
 10
318.23008164009468
 20
-424.81300816400949
 30
0.0
 11
318.23008164009468
 21
-410.61300858786473
 31
0.0
  0
ARC
  5
7D9
  8
DATA
  6
CONTINUOUS
 62
     7
 10
323.98008164009468
 20
-410.61300816400939
 30
0.0
 40
0.75
 50
0.0
 51
180.0
  0
ARC
  5
7DA
  8
DATA
  6
CONTINUOUS
 62
     7
 10
323.98008164009468
 20
-424.81300816400949
 30
0.0
 40
0.75
 50
180.0
 51
0.0
  0
LINE
  5
7DB
  8
DATA
  6
CONTINUOUS
 62
     7
 10
324.73008164009468
 20
-410.61300816400939
 30
0.0
 11
324.73008164009468
 21
-424.77620159138218
 31
0.0
  0
LINE
  5
7DC
  8
DATA
  6
CONTINUOUS
 62
     7
 10
323.23008164009468
 20
-424.81300816400949
 30
0.0
 11
323.23008164009468
 21
-410.61300858786473
 31
0.0
  0
ARC
  5
7DD
  8
DATA
  6
CONTINUOUS
 62
     7
 10
328.98008164009468
 20
-410.61300816400939
 30
0.0
 40
0.75
 50
0.0
 51
180.0
  0
ARC
  5
7DE
  8
DATA
  6
CONTINUOUS
 62
     7
 10
328.98008164009468
 20
-424.81300816400949
 30
0.0
 40
0.75
 50
180.0
 51
0.0
  0
LINE
  5
7DF
  8
DATA
  6
CONTINUOUS
 62
     7
 10
329.73008164009468
 20
-410.61300816400939
 30
0.0
 11
329.73008164009468
 21
-424.77620159138218
 31
0.0
  0
LINE
  5
7E0
  8
DATA
  6
CONTINUOUS
 62
     7
 10
328.23008164009468
 20
-424.81300816400949
 30
0.0
 11
328.23008164009468
 21
-410.61300858786473
 31
0.0
  0
ARC
  5
7E1
  8
DATA
  6
CONTINUOUS
 62
     7
 10
333.98008164009468
 20
-410.61300816400939
 30
0.0
 40
0.75
 50
0.0
 51
180.0
  0
ARC
  5
7E2
  8
DATA
  6
CONTINUOUS
 62
     7
 10
333.98008164009468
 20
-424.81300816400949
 30
0.0
 40
0.75
 50
180.0
 51
0.0
  0
LINE
  5
7E3
  8
DATA
  6
CONTINUOUS
 62
     7
 10
334.73008164009468
 20
-410.61300816400939
 30
0.0
 11
334.73008164009468
 21
-424.77620159138218
 31
0.0
  0
LINE
  5
7E4
  8
DATA
  6
CONTINUOUS
 62
     7
 10
333.23008164009468
 20
-424.81300816400949
 30
0.0
 11
333.23008164009468
 21
-410.61300858786473
 31
0.0
  0
ARC
  5
7E5
  8
DATA
  6
CONTINUOUS
 62
     7
 10
338.98008164009468
 20
-410.61300816400939
 30
0.0
 40
0.75
 50
0.0
 51
180.0
  0
ARC
  5
7E6
  8
DATA
  6
CONTINUOUS
 62
     7
 10
338.98008164009468
 20
-424.81300816400949
 30
0.0
 40
0.75
 50
180.0
 51
0.0
  0
LINE
  5
7E7
  8
DATA
  6
CONTINUOUS
 62
     7
 10
339.73008164009468
 20
-410.61300816400939
 30
0.0
 11
339.73008164009468
 21
-424.77620159138218
 31
0.0
  0
LINE
  5
7E8
  8
DATA
  6
CONTINUOUS
 62
     7
 10
338.23008164009468
 20
-424.81300816400949
 30
0.0
 11
338.23008164009468
 21
-410.61300858786473
 31
0.0
  0
ARC
  5
7E9
  8
DATA
  6
CONTINUOUS
 62
     7
 10
343.98008164009468
 20
-410.61300816400939
 30
0.0
 40
0.75
 50
0.0
 51
180.0
  0
ARC
  5
7EA
  8
DATA
  6
CONTINUOUS
 62
     7
 10
343.98008164009468
 20
-424.81300816400949
 30
0.0
 40
0.75
 50
180.0
 51
0.0
  0
LINE
  5
7EB
  8
DATA
  6
CONTINUOUS
 62
     7
 10
344.73008164009468
 20
-410.61300816400939
 30
0.0
 11
344.73008164009468
 21
-424.77620159138218
 31
0.0
  0
LINE
  5
7EC
  8
DATA
  6
CONTINUOUS
 62
     7
 10
343.23008164009468
 20
-424.81300816400949
 30
0.0
 11
343.23008164009468
 21
-410.61300858786473
 31
0.0
  0
ARC
  5
7ED
  8
DATA
  6
CONTINUOUS
 62
     7
 10
348.98008164009468
 20
-410.61300816400939
 30
0.0
 40
0.75
 50
0.0
 51
180.0
  0
ARC
  5
7EE
  8
DATA
  6
CONTINUOUS
 62
     7
 10
348.98008164009468
 20
-424.81300816400949
 30
0.0
 40
0.75
 50
180.0
 51
0.0
  0
LINE
  5
7EF
  8
DATA
  6
CONTINUOUS
 62
     7
 10
349.73008164009468
 20
-410.61300816400939
 30
0.0
 11
349.73008164009468
 21
-424.77620159138218
 31
0.0
  0
LINE
  5
7F0
  8
DATA
  6
CONTINUOUS
 62
     7
 10
348.23008164009468
 20
-424.81300816400949
 30
0.0
 11
348.23008164009468
 21
-410.61300858786473
 31
0.0
  0
ARC
  5
7F1
  8
DATA
  6
CONTINUOUS
 62
     7
 10
353.98008164009468
 20
-410.61300816400939
 30
0.0
 40
0.75
 50
0.0
 51
180.0
  0
ARC
  5
7F2
  8
DATA
  6
CONTINUOUS
 62
     7
 10
353.98008164009468
 20
-424.81300816400949
 30
0.0
 40
0.75
 50
180.0
 51
0.0
  0
LINE
  5
7F3
  8
DATA
  6
CONTINUOUS
 62
     7
 10
354.73008164009468
 20
-410.61300816400939
 30
0.0
 11
354.73008164009468
 21
-424.77620159138218
 31
0.0
  0
LINE
  5
7F4
  8
DATA
  6
CONTINUOUS
 62
     7
 10
353.23008164009468
 20
-424.81300816400949
 30
0.0
 11
353.23008164009468
 21
-410.61300858786473
 31
0.0
  0
ARC
  5
7F5
  8
DATA
  6
CONTINUOUS
 62
     7
 10
358.98008164009468
 20
-410.61300816400939
 30
0.0
 40
0.75
 50
0.0
 51
180.0
  0
ARC
  5
7F6
  8
DATA
  6
CONTINUOUS
 62
     7
 10
358.98008164009468
 20
-424.81300816400949
 30
0.0
 40
0.75
 50
180.0
 51
0.0
  0
LINE
  5
7F7
  8
DATA
  6
CONTINUOUS
 62
     7
 10
359.73008164009468
 20
-410.61300816400939
 30
0.0
 11
359.73008164009468
 21
-424.77620159138218
 31
0.0
  0
LINE
  5
7F8
  8
DATA
  6
CONTINUOUS
 62
     7
 10
358.23008164009468
 20
-424.81300816400949
 30
0.0
 11
358.23008164009468
 21
-410.61300858786473
 31
0.0
  0
ARC
  5
7F9
  8
DATA
  6
CONTINUOUS
 62
     7
 10
363.98008164009462
 20
-410.61300816400939
 30
0.0
 40
0.75
 50
0.0
 51
180.0
  0
ARC
  5
7FA
  8
DATA
  6
CONTINUOUS
 62
     7
 10
363.98008164009462
 20
-424.81300816400949
 30
0.0
 40
0.75
 50
180.0
 51
0.0
  0
LINE
  5
7FB
  8
DATA
  6
CONTINUOUS
 62
     7
 10
364.73008164009462
 20
-410.61300816400939
 30
0.0
 11
364.73008164009462
 21
-424.77620159138218
 31
0.0
  0
LINE
  5
7FC
  8
DATA
  6
CONTINUOUS
 62
     7
 10
363.23008164009462
 20
-424.81300816400949
 30
0.0
 11
363.23008164009462
 21
-410.61300858786473
 31
0.0
  0
ARC
  5
7FD
  8
DATA
  6
CONTINUOUS
 62
     7
 10
368.98008164009462
 20
-410.61300816400939
 30
0.0
 40
0.75
 50
0.0
 51
180.0
  0
ARC
  5
7FE
  8
DATA
  6
CONTINUOUS
 62
     7
 10
368.98008164009462
 20
-424.81300816400949
 30
0.0
 40
0.75
 50
180.0
 51
0.0
  0
LINE
  5
7FF
  8
DATA
  6
CONTINUOUS
 62
     7
 10
369.73008164009462
 20
-410.61300816400939
 30
0.0
 11
369.73008164009462
 21
-424.77620159138218
 31
0.0
  0
LINE
  5
800
  8
DATA
  6
CONTINUOUS
 62
     7
 10
368.23008164009462
 20
-424.81300816400949
 30
0.0
 11
368.23008164009462
 21
-410.61300858786473
 31
0.0
  0
ARC
  5
801
  8
DATA
  6
CONTINUOUS
 62
     7
 10
373.98008164009462
 20
-410.61300816400939
 30
0.0
 40
0.75
 50
0.0
 51
180.0
  0
ARC
  5
802
  8
DATA
  6
CONTINUOUS
 62
     7
 10
373.98008164009462
 20
-424.81300816400949
 30
0.0
 40
0.75
 50
180.0
 51
0.0
  0
LINE
  5
803
  8
DATA
  6
CONTINUOUS
 62
     7
 10
374.73008164009462
 20
-410.61300816400939
 30
0.0
 11
374.73008164009462
 21
-424.77620159138218
 31
0.0
  0
LINE
  5
804
  8
DATA
  6
CONTINUOUS
 62
     7
 10
373.23008164009462
 20
-424.81300816400949
 30
0.0
 11
373.23008164009462
 21
-410.61300858786473
 31
0.0
  0
ARC
  5
805
  8
DATA
  6
CONTINUOUS
 62
     7
 10
378.98008164009462
 20
-410.61300816400939
 30
0.0
 40
0.75
 50
0.0
 51
180.0
  0
ARC
  5
806
  8
DATA
  6
CONTINUOUS
 62
     7
 10
378.98008164009462
 20
-424.81300816400949
 30
0.0
 40
0.75
 50
180.0
 51
0.0
  0
LINE
  5
807
  8
DATA
  6
CONTINUOUS
 62
     7
 10
379.73008164009462
 20
-410.61300816400939
 30
0.0
 11
379.73008164009462
 21
-424.77620159138218
 31
0.0
  0
LINE
  5
808
  8
DATA
  6
CONTINUOUS
 62
     7
 10
378.23008164009462
 20
-424.81300816400949
 30
0.0
 11
378.23008164009462
 21
-410.61300858786473
 31
0.0
  0
ARC
  5
809
  8
DATA
  6
CONTINUOUS
 62
     7
 10
383.98008164009462
 20
-410.61300816400939
 30
0.0
 40
0.75
 50
0.0
 51
180.0
  0
ARC
  5
80A
  8
DATA
  6
CONTINUOUS
 62
     7
 10
383.98008164009462
 20
-424.81300816400949
 30
0.0
 40
0.75
 50
180.0
 51
0.0
  0
LINE
  5
80B
  8
DATA
  6
CONTINUOUS
 62
     7
 10
384.73008164009462
 20
-410.61300816400939
 30
0.0
 11
384.73008164009462
 21
-424.77620159138218
 31
0.0
  0
LINE
  5
80C
  8
DATA
  6
CONTINUOUS
 62
     7
 10
383.23008164009462
 20
-424.81300816400949
 30
0.0
 11
383.23008164009462
 21
-410.61300858786473
 31
0.0
  0
ARC
  5
80D
  8
DATA
  6
CONTINUOUS
 62
     7
 10
388.98008164009462
 20
-410.61300816400939
 30
0.0
 40
0.75
 50
0.0
 51
180.0
  0
ARC
  5
80E
  8
DATA
  6
CONTINUOUS
 62
     7
 10
388.98008164009462
 20
-424.81300816400949
 30
0.0
 40
0.75
 50
180.0
 51
0.0
  0
LINE
  5
80F
  8
DATA
  6
CONTINUOUS
 62
     7
 10
389.73008164009462
 20
-410.61300816400939
 30
0.0
 11
389.73008164009462
 21
-424.77620159138218
 31
0.0
  0
LINE
  5
810
  8
DATA
  6
CONTINUOUS
 62
     7
 10
388.23008164009462
 20
-424.81300816400949
 30
0.0
 11
388.23008164009462
 21
-410.61300858786473
 31
0.0
  0
ARC
  5
811
  8
DATA
  6
CONTINUOUS
 62
     7
 10
393.98008164009462
 20
-410.61300816400939
 30
0.0
 40
0.75
 50
0.0
 51
180.0
  0
ARC
  5
812
  8
DATA
  6
CONTINUOUS
 62
     7
 10
393.98008164009462
 20
-424.81300816400949
 30
0.0
 40
0.75
 50
180.0
 51
0.0
  0
LINE
  5
813
  8
DATA
  6
CONTINUOUS
 62
     7
 10
394.73008164009462
 20
-410.61300816400939
 30
0.0
 11
394.73008164009462
 21
-424.77620159138218
 31
0.0
  0
LINE
  5
814
  8
DATA
  6
CONTINUOUS
 62
     7
 10
393.23008164009462
 20
-424.81300816400949
 30
0.0
 11
393.23008164009462
 21
-410.61300858786473
 31
0.0
  0
POLYLINE
  5
815
  8
DATA
  6
CONTINUOUS
 62
     7
 66
     1
 10
0.0
 20
0.0
 30
0.0
 70
   129
  0
VERTEX
  5
D29
  8
DATA
  6
CONTINUOUS
 62
     7
 10
217.05615947743871
 20
-396.80903908633218
 30
0.0
 42
-0.4142135623730951
  0
VERTEX
  5
D2A
  8
DATA
  6
CONTINUOUS
 62
     7
 10
217.5561594774388
 20
-396.30903908633218
 30
0.0
  0
VERTEX
  5
D2B
  8
DATA
  6
CONTINUOUS
 62
     7
 10
220.05615947743871
 20
-396.30903908633218
 30
0.0
  0
VERTEX
  5
D2C
  8
DATA
  6
CONTINUOUS
 62
     7
 10
220.05615947743871
 20
-402.00903908633211
 30
0.0
  0
VERTEX
  5
D2D
  8
DATA
  6
CONTINUOUS
 62
     7
 10
217.5561594774388
 20
-402.00903908633211
 30
0.0
 42
-0.4142135623730617
  0
VERTEX
  5
D2E
  8
DATA
  6
CONTINUOUS
 62
     7
 10
217.05615947743871
 20
-401.50903908633211
 30
0.0
  0
SEQEND
  5
D2F
  8
DATA
  6
CONTINUOUS
 62
     7
  0
POLYLINE
  5
81D
  8
DATA
  6
CONTINUOUS
 62
     7
 66
     1
 10
0.0
 20
0.0
 30
0.0
 70
   129
  0
VERTEX
  5
D30
  8
DATA
  6
CONTINUOUS
 62
     7
 10
217.05615947743871
 20
-433.57242074731357
 30
0.0
 42
-0.4142135623730951
  0
VERTEX
  5
D31
  8
DATA
  6
CONTINUOUS
 62
     7
 10
217.5561594774388
 20
-433.07242074731357
 30
0.0
  0
VERTEX
  5
D32
  8
DATA
  6
CONTINUOUS
 62
     7
 10
220.05615947743871
 20
-433.07242074731357
 30
0.0
  0
VERTEX
  5
D33
  8
DATA
  6
CONTINUOUS
 62
     7
 10
220.05615947743871
 20
-438.7724207473135
 30
0.0
  0
VERTEX
  5
D34
  8
DATA
  6
CONTINUOUS
 62
     7
 10
217.5561594774388
 20
-438.7724207473135
 30
0.0
 42
-0.4142135623730617
  0
VERTEX
  5
D35
  8
DATA
  6
CONTINUOUS
 62
     7
 10
217.05615947743871
 20
-438.27242074731362
 30
0.0
  0
SEQEND
  5
D36
  8
DATA
  6
CONTINUOUS
 62
     7
  0
LINE
  5
825
  8
DATA
  6
CONTINUOUS
 62
     7
 10
215.26080250335869
 20
-411.38369009096772
 30
0.0
 11
217.6090511436596
 21
-409.4895195846857
 31
0.0
  0
ARC
  5
826
  8
DATA
  6
CONTINUOUS
 62
     7
 10
202.98242808972279
 20
-423.5796791380489
 30
0.0
 40
16.761713770495991
 50
29.235342613657249
 51
43.156123723094233
  0
ARC
  5
827
  8
DATA
  6
CONTINUOUS
 62
     7
 10
215.5747210642476
 20
-411.77286246553911
 30
0.0
 40
0.4999999999999269
 50
128.8907289605375
 51
223.1561237230994
  0
LINE
  5
828
  8
DATA
  6
CONTINUOUS
 62
     7
 10
218.0569666364668
 20
-407.81778309608637
 30
0.0
 11
218.0569666364668
 21
-426.88127222572672
 31
0.0
  0
LINE
  5
829
  8
DATA
  6
CONTINUOUS
 62
     7
 10
218.0569666364668
 20
-426.88127222572672
 30
0.0
 11
220.0569666364668
 21
-426.88127222572672
 31
0.0
  0
LINE
  5
82A
  8
DATA
  6
CONTINUOUS
 62
     7
 10
217.6090511436596
 20
-409.4895195846857
 30
0.0
 11
218.0569666364668
 21
-409.12821699465258
 31
0.0
  0
LINE
  5
82B
  8
DATA
  6
CONTINUOUS
 62
     7
 10
217.6090511436594
 20
-415.39329125558919
 30
0.0
 11
218.0569666364668
 21
-416.69999999999999
 31
0.0
  0
LINE
  5
82C
  8
DATA
  6
CONTINUOUS
 62
     7
 10
420.05696663646683
 20
-436.5589248415647
 30
0.0
 11
421.55696663646683
 21
-436.5589248415647
 31
0.0
  0
LINE
  5
82D
  8
DATA
  6
CONTINUOUS
 62
     7
 10
421.55696663646683
 20
-436.5589248415647
 30
0.0
 11
421.55696663646683
 21
-402.55892484156482
 31
0.0
  0
LINE
  5
82E
  8
DATA
  6
CONTINUOUS
 62
     7
 10
421.55696663646683
 20
-402.55892484156482
 30
0.0
 11
420.05696663646683
 21
-402.55892484156482
 31
0.0
  0
POLYLINE
  5
82F
  8
DATA
  6
CONTINUOUS
 62
     7
 66
     1
 10
0.0
 20
0.0
 30
0.0
  0
VERTEX
  5
D37
  8
DATA
  6
CONTINUOUS
 62
     7
 10
421.55696663646683
 20
-411.14892484156462
 30
0.0
  0
VERTEX
  5
D38
  8
DATA
  6
CONTINUOUS
 62
     7
 10
423.0669216485353
 20
-411.14892484156462
 30
0.0
  0
VERTEX
  5
D39
  8
DATA
  6
CONTINUOUS
 62
     7
 10
423.0669216485353
 20
-403.34892484156461
 30
0.0
  0
VERTEX
  5
D3A
  8
DATA
  6
CONTINUOUS
 62
     7
 10
421.55696663646683
 20
-403.34892484156461
 30
0.0
  0
SEQEND
  5
D3B
  8
DATA
  6
CONTINUOUS
 62
     7
  0
POLYLINE
  5
835
  8
DATA
  6
CONTINUOUS
 62
     7
 66
     1
 10
0.0
 20
0.0
 30
0.0
  0
VERTEX
  5
D3C
  8
DATA
  6
CONTINUOUS
 62
     7
 10
421.55696663646683
 20
-429.54242690344529
 30
0.0
  0
VERTEX
  5
D3D
  8
DATA
  6
CONTINUOUS
 62
     7
 10
422.97510309403231
 20
-429.54242690344529
 30
0.0
  0
VERTEX
  5
D3E
  8
DATA
  6
CONTINUOUS
 62
     7
 10
422.97510309403231
 20
-421.74242690344528
 30
0.0
  0
VERTEX
  5
D3F
  8
DATA
  6
CONTINUOUS
 62
     7
 10
421.55696663646683
 20
-421.74242690344528
 30
0.0
  0
SEQEND
  5
D40
  8
DATA
  6
CONTINUOUS
 62
     7
  0
POLYLINE
  5
83B
  8
DATA
  6
CONTINUOUS
 62
     7
 66
     1
 10
0.0
 20
0.0
 30
0.0
  0
VERTEX
  5
D41
  8
DATA
  6
CONTINUOUS
 62
     7
 10
421.55696663646683
 20
-409.74892484156459
 30
0.0
  0
VERTEX
  5
D42
  8
DATA
  6
CONTINUOUS
 62
     7
 10
423.0669216485353
 20
-409.74892484156459
 30
0.0
  0
VERTEX
  5
D43
  8
DATA
  6
CONTINUOUS
 62
     7
 10
423.0669216485353
 20
-404.74892484156459
 30
0.0
  0
VERTEX
  5
D44
  8
DATA
  6
CONTINUOUS
 62
     7
 10
421.55696663646683
 20
-404.74892484156459
 30
0.0
  0
SEQEND
  5
D45
  8
DATA
  6
CONTINUOUS
 62
     7
  0
POLYLINE
  5
841
  8
DATA
  6
CONTINUOUS
 62
     7
 66
     1
 10
0.0
 20
0.0
 30
0.0
  0
VERTEX
  5
D46
  8
DATA
  6
CONTINUOUS
 62
     7
 10
421.55696663646683
 20
-428.14242690344543
 30
0.0
  0
VERTEX
  5
D47
  8
DATA
  6
CONTINUOUS
 62
     7
 10
422.97510309403231
 20
-428.14242690344543
 30
0.0
  0
VERTEX
  5
D48
  8
DATA
  6
CONTINUOUS
 62
     7
 10
422.97510309403231
 20
-423.14242690344531
 30
0.0
  0
VERTEX
  5
D49
  8
DATA
  6
CONTINUOUS
 62
     7
 10
421.55696663646683
 20
-423.14242690344531
 30
0.0
  0
SEQEND
  5
D4A
  8
DATA
  6
CONTINUOUS
 62
     7
  0
TEXT
  5
847
  8
DATA
 62
     7
 10
214.43703325312461
 20
-591.82849660961244
 30
0.0
 40
12.21630859375
  1
DriveRack　480P
 41
0.8
 11
214.43703325312461
 21
-579.61218801586244
 31
0.0
 73
     3
  0
TEXT
  5
848
  8
DATA
 62
     7
 10
215.5
 20
-572.69139229449615
 30
0.0
 40
9.5015733506944446
  1
DriveRack 480R用電源
 41
0.8
 11
215.5
 21
-563.18981894380158
 31
0.0
 73
     3
  0
ENDSEC
  0
EOF
